Author Topic: Daniel Brummel - Speak Easy  (Read 7237 times)

0 Members and 1 Guest are viewing this topic.

Offline imatreeandurnot

  • Closet Boy
  • Sr. Member
  • ****
  • Posts: 898
  • Karma: 224
  • Gender: Male
  • I'M A BEAUTIFUL MERMAID
    • Poopsex.org
Daniel Brummel - Speak Easy
« on: December 06, 2005, 05:27:41 pm »
Most tabs are missing! Maybe you have a song written down somewhere? Neato! Send it to either via email to Joe or Rieg or via Private Message to Jason or Joe or Rieg!
Ofcourse you will be credited and your tab will be posted here unedited!


Tab transcribed by les cambrioleurs

Sao Paulo
Daniel Brummel
Speak Easy

standard tuning, recording sounds slightly flat
fingerstyle

 Intro

  C6add9
|-------3----|------------||---------------|---------------||
|-----3------|------------||-----3----3--3-|----3----3--3--||
|---2--------|------------||-----2----2--2-|----2----2--2--||
|-2----------|------------||-----2----2--2-|----2----2--2--||
|------------|------------||--3------------|-3-------------||
|------------|------------||--------3------|-------3-------||


 Verse
  C6add9         Cadd9+5        D°7   G7b13    C6add9
|--------------|--------------|--------------|----------------|
|----3----3--3-|----3----3--3-|----6----4--4-|----3----3--3---|
|----2----2--2-|----1----1--1-|----4----4--4-|----2----2--2---|
|----2----2--2-|----2----2--2-|----6----3--3-|----2----2--2---|
|-3------------|-3------------|-5------------|-3--------------|
|-------3------|-------3------|-------3------|-------3--------|


  C6add9         Cadd9+5        D°7   G7b13    C  D°7 G7b13
|--------------|--------------|--------------|------------^6--||
|----3----3--3-|----3----3--3-|----6----4--4-|----^6--^4--^4--||
|----2----2--2-|----1----1--1-|----4----4--4-|----^4--^4--^4--||
|----2----2--2-|----2----2--2-|----6----3--3-|----^6--^3------||
|-3------------|-3------------|-5------------|-3--^5----------||
|-------3------|-------3------|-------3------|--------^3------||


 Chorus
  C6add9                        G+add9
|--------------|--------------|-----5----5--5-|----5----5--5-|
|----3----3--3-|----3----3--3-|-----4----4--4-|----4----4--4-|
|----2----2--2-|----2----2--2-|-----4----4--4-|----4----4--4-|
|----2----2--2-|----2----2--2-|-/5------------|-5------------|
|-3------------|-3------------|--------5------|-------5------|
|-------3------|-------3------|---------------|--------------|


  C6add9                        Fmadd9
|--------------|--------------|----3----3--3-|----3----3--3-|
|----3----3--3-|----3----3--3-|----1----1--1-|----1----1--1-|
|----2----2--2-|----2----2--2-|----1----1--1-|----1----1--1-|
|----2----2--2-|----2----2--2-|-3------------|-3------------|
|-3------------|-3------------|-------3------|-------3------|
|-------3------|-------3------|--------------|--------------|


  C6add9                        G+add9
|--------------|--------------|-----5----5--5-|----5----5--5---|
|----3----3--3-|----3----3--3-|-----4----4--4-|----4----4--4---|
|----2----2--2-|----2----2--2-|-----4----4--4-|----4----4--4---|
|----2----2--2-|----2----2--2-|-/5------------|-5--------------|
|-3------------|-3------------|--------5------|-------5--------|
|-------3------|-------3------|---------------|----------------|


                 C6add9
|----5----5--5-|--------------|--------------||
|----4----4--4-|----3----3--3-|----3----3--3-||
|----4----4--4-|----2----2--2-|----2----2--2-||
|-5------------|----2----2--2-|----2----2--2-||
|-------5------|-3------------|-3------------||
|--------------|-------3------|-------3------||


Offline imatreeandurnot

  • Closet Boy
  • Sr. Member
  • ****
  • Posts: 898
  • Karma: 224
  • Gender: Male
  • I'M A BEAUTIFUL MERMAID
    • Poopsex.org
Re: Daniel Brummel - Speak Easy
« Reply #1 on: December 22, 2005, 08:37:31 am »
Tab transcribed by les cambrioleurs

Mystery Of The Cathedrals
Daniel Brummel
Speak Easy

tune 1/2 step down
fingerstyle

 Intro
  Amadd9
 4/4
  Gtr I
|----------------|-----------0-----|----------------|-----------7------||
|-------0-----0--|-------0-------0-|-------0-----0--|-------0-------0--||
|-----5-----5----|-----5---5---5---|-----5-----5----|-----5---5---5----||
|---7------------|---7-------------|---7------------|---7--------------||
|-0--------------|-0---------------|-0--------------|-0----------------||
|---------0------|---------0-------|---------0------|---------0--------||


 "my lying love"
  Amadd9
|----------------|-----------<7>-----|----------------|-----------0-----|
|-------0-----0--|-------0---------0-|-------0-----0--|-------0-------0-|
|-----5-----5----|-----5---5-----5---|-----5-----5----|-----5---5---5---|
|---7------------|---7---------------|---7------------|---7-------------|
|-0--------------|-0-----------------|-0--------------|-0---------------|
|---------0------|---------0---------|---------0------|---------0-------|


  Dmadd4
|-------------0--|-----------0-----|-------------0--|---------------<7>--|
|-------6--------|-------6---------|-------6--------|-------6------------|
|-----0-----0----|-----0---0-----7-|-----0-----0----|-----0-----<7>------|
|---7------------|---7---------7---|---7------------|---7----------------|
|-5--------------|-5---------------|-5--------------|-5------------------|
|---------5------|---------5-------|---------5------|---------5----------|


                                       "you and i were..."
  Amadd9                                        N.C.
|----------------|-----------<7>-----||-----------------|---------------------|
|-------0-----0--|-------0---------0-||-------0---------|---------------------|
|-----5-----5----|-----5---5-----5---||-----5---2-0-----|---------------------|
|---7------------|---7---------------||---7---------3s2-|-0-------------------|
|-0--------------|-0-----------------||-0---------------|---3-2-0-------------|
|---------0------|---------0---------||-----------------|---------3-1h3p1p0-1-|


  E7
|----------------|-----------0---|-----------0-----|-----------------||
|-------0-----0--|-------0-------|-------0-------0-|-------0---------||
|-----7-----7----|-----7---------|-----7---7---7---|-----7---7-7-5-4-||
|---6------------|---6-----------|---6-------------|---6-------------||
|----------------|-7-------------|-----------------|-7---------------||
|-0-------7------|---------7-----|-0-------7-------|---------7-------||


  Amadd9
|----------------|-----------<7>-----|----------------|-----------0-----|
|-------0-----0--|-------0---------0-|-------0-----0--|-------0-------0-|
|-----5-----5----|-----5---5-----5---|-----5-----5----|-----5---5---5---|
|---7------------|---7---------------|---7------------|---7-------------|
|-0--------------|-0-----------------|-0--------------|-0---------------|
|---------0------|---------0---------|---------0------|---------0-------|


  D7/F#                             Dm7/F
|----------------|----------------|----------------|----------------||
|-------3-----1--|-------3-----1--|-------3-----1--|-------3-----1--||
|-----2-----2----|-----2-----2----|-----2-----2----|-----2-----2----||
|---0-----0------|---0-----0------|---0-----0------|---0-----0------||
|----------------|----------------|----------------|----------------||
|-2--------------|-2--------------|-1--------------|-1--------------||


  Amadd9                                 D7/F#
|----------------|---------------------|----------------|
|-------0-----0--|-------0-------------|-------3-----1--|
|-----5-----5----|-----5---2-0h2p0-----|-----2-----2----|
|---7------------|---7-------------3-2-|-0-------0------|
|-0--------------|-0-------------------|----------------|
|---------0------|---------------------|---2------------|


                   Dm7/F
|----------------|----------------|------------------||
|-------3-----1--|-------3-----1--|-------3-----1----||
|-----2-----2----|-----2-----2----|-----2-----2------||
|---0-----0------|---0-----0------|---0-----0--------||
|----------------|----------------|------------------||
|-2--------------|-1--------------|-1----------------||


  Am6add9
|----------------|-----------0-----|----------------|-----------0-----|
|-------0-----0--|-------0-------0-|-------0-----0--|-------0-------0-|
|-----5-----5----|-----5---5---5---|-----5-----5----|-----5---5---5---|
|---4------------|---4-------------|---4------------|---4-------------|
|-0--------------|-0---------------|-0--------------|-0---------------|
|---------0------|---------0-------|---------0------|---------0-------|


 "my lying love..."
  Am6add9
|----------------|-----------0-----|----------------|-----------0-----|
|-------0-----0--|-------0-------0-|-------0-----0--|-------0-------0-|
|-----5-----5----|-----5---5---5---|-----5-----5----|-----5---5---5---|
|---4------------|---4-------------|---4------------|---4-------------|
|-0--------------|-0---------------|-0--------------|-0---------------|
|---------0------|---------0-------|---------0------|---------0-------|


  Dmadd4                                Fadd2
|-------------0--|---------------<7>--|----------------|-------1--------||
|-------6--------|-------6------------|----------------|-----1-------0--||
|-----0-----0----|-----0-----<7>------|-----0----------|---2-------2----||
|---7------------|---7----------------|---------3---2--|-0-------0------||
|-5--------------|-5------------------|---3---3---3----|----------------||
|---------5------|---------5----------|-1--------------|----------------||


                                       "you were hidden in..."
  Amadd9                                Amadd9  N.C.
|----------------|-----------<7>-----||-----------------|---------------------|
|-------0-----0--|-------0---------0-||-------0---------|---------------------|
|-----5-----5----|-----5---5-----5---||-----5---2-0-----|---------------------|
|---7------------|---7---------------||---7---------3-2-|-0-------------------|
|-0--------------|-0-----------------||-0---------------|---3-2-0-------------|
|---------0------|---------0---------||-----------------|---------3-1h3p1p0-1-|


  E7
|----------------|-----------0---|-----------0-----||
|-------0-----0--|-------0-------|-------0-------0-||
|-----7-----7----|-----7---------|-----7---7---7---||
|---6------------|---6-----------|---6-------------||
|----------------|-7-------------|-----------------||
|-0-------7------|---------7-----|-0-------7-------||


  Amadd9  N.C.                                E7
|-----------------|-------------------------|----------------|-----------0---|
|-------0---------|-------------------------|-------0-----0--|-------0-------|
|-----5---2-0-----|-------------------------|-----7-----7----|-----7---------|
|---7---------3-2-|-0-----------------------|---6------------|---6-----------|
|-0---------------|---3-2h3p2-0-------------|----------------|-7-------------|
|-----------------|-------------3-1h3p1p0h1-|-0-------7------|---------7-----|


|-----------0-----|-----------------||
|-------0-------0-|-------0---------||
|-----7---7---7---|-----7---7-7-5-4-||
|---6-------------|---6-------------||
|-----------------|-7---------------||
|-0-------7-------|---------7-------||


 "i only rest..."
  Amadd9
|----------------|-----------7-----|----------------|
|-------0-----0--|-------0-------0-|-------0-----0--|
|-----5-----5----|-----5---5---5---|-----5-----5----|
|---7------------|---7-------------|---7------------|
|-0--------------|-0---------------|-0--------------|
|---------0------|---------0-------|---------0------|


|-----------0-----|----------------|-----------<7>-----|
|-------0-------0-|-------0-----0--|-------0---------0-|
|-----5---5---5---|-----5-----5----|-----5---5-----5---|
|---7-------------|---7------------|---7---------------|
|-0---------------|-0--------------|-0-----------------|
|---------0-------|---------0------|---------0---------|


|----------------|-----------0-----||
|-------0-----0--|-------0-------0-||
|-----5-----5----|-----5---5---5---||
|---7------------|---7-------------||
|-0--------------|-0---------------||
|---------0------|---------0-------||


|----------------|----------------|----------------|---------------------|
|-------3-----1--|-------3-----1--|-------3-----1--|-------3-(3)s1---1---|
|-----2-----2----|-----2-----2----|-----2-----2----|-----2---------2-----|
|---0-----0------|---0-----0------|---0-----0------|---0------0----------|
|----------------|----------------|----------------|---------------------|
|-2--------------|-2--------------|-1--------------|-1-------------------|


 Outro
  Am6add9                            Am9
|----------------|-----------0-----|----------------|-----------<5>-----|
|-------0-----0--|-------0-------0-|-------0-----0--|-------0---------0-|
|-----5-----5----|-----5---5---5---|-----5-----5----|-----5---5-----5---|
|---4------------|---4-------------|---5------------|---5---------------|
|-0--------------|-0---------------|-0--------------|-0-----------------|
|---------0------|---------0-------|---------0------|---------0---------|


  Am6add9                              Amadd9
|----------------|-----------<5>-----|----------------|-<12>--------^<7>----*|
|-------0-----0--|-------0---------0-|-------0-----0--|-<12>--------^-0-----*|
|-----5-----5----|-----5---5-----5---|-----5-----5----|-------------^-5-----*|
|---4------------|---4---------------|---7------------|-------------^-7-----*|
|-0--------------|-0-----------------|-0--------------|-------------^-0-----*|
|---------0------|---------0---------|---------0------|-------<12>----------*|