August 21, 2017, 03:35:35 pm

News:

Sometimes it burns when I pee....


[Guitar] Songs of inaudible trucks and cars

Started by imatreeandurnot, December 22, 2005, 06:11:51 pm

previous topic - next topic

0 Members and 1 Guest are viewing this topic.

Go Down

imatreeandurnot

December 22, 2005, 06:11:51 pm Last Edit: December 22, 2005, 06:26:24 pm by imatreeandurnot
1. Lorraine

Tab transcribed by d. brummel.

=====================================================================
ozma guitar tablature: lorraine
as performed on the CD "songs of inaudible trucks and cars."
copyright (c) 1999 ozma/toilet zone music.
transcribed by d. brummel.
bass tab available at http://www.ozmaonline.com/tab/blorrain.tab
=====================================================================

"lorraine" is played in the key of A major, in 6/8 time. guitars and
bass are both tuned down one half step, so the song sounds in Ab.

it begins with a 4 bar bass phrase, emulating 50's rhythm changes.
it repeats 4 times. tabbed below for guitar, an octave higher than
normal:

g--------------------------------------------------------------------
d---7-7-7-7-7---------------/9-9-9-9-9-------------------------------
a-------------7-9-9-9-9-9-9------------9-7-7-7-7-7-7-----------------
e--------------------------------------------------------------------

"/" indicates a slide into a note.

the 2 guitars and the keyboard play a harmonized melody over this bassline on it's 3rd and 4th repetitions. the lead guitar line is as follows:

e--------------------9-7---------------------
B------------10----------10-9---7------------
G---6--7--9-----------------------9---7------
D--------------------------------------------
A--------------------------------------------
E--------------------------------------------


e--------------------------------------------
B------------10-----------------------10-9---
G---6--7--9----------------------------------
D--------------------------------------------
A--------------------------------------------
E--------------------------------------------

the keyboard then plays the following melody (tabbed for guitar) over the intro chords:

e--------------------------------------------
B----9--7-9-10--9-----9--7-9-10--9-----------
G------------------6-------------------------
D--------------------------------------------
A--------------------------------------------
E--------------------------------------------

e--------------------------------------------
B----9--7-9-10--9-----9----10----------------
G------------------6-----------6-------------
D--------------------------------------------
A--------------------------------------------
E--------------------------------------------


intro chords:

A / Bmi / F#mi / C#mi    3x
A / Bmi / F#mi / E

verse chords:

A                C#mi             F#mi      Bmi
there's just one thing i couldn't find one girl who couldn't be mine
A        C#mi             F#mi              Bmi
she's in love with calvin klein    etc...

the first guitar melody is then played over the following chords:

A / F#mi / Bmi / E
A / F#mi / Bmi / E

verse two same chords as verse one
chorus chords:

A         F#mi         D     E
lorraine, lorraine, my destiny
             F#mi     E              D              E
this song is over without you so i'm singing this refrain to you

repeat intro chords with keyboard melody
verse three
chorus

bridge chords:
E         D       A      A/B/E/F#mi
until the night i realized
             D                    A / B / A / G# / F#mi    E
that i still see the world through candy-coated eyes

chords under the guitar solo:
F#   / E / F#mi   / E / F#mi   / E / F#mi  / E / D      E      2x

guitar solo tabbed out:

e--14--12----------------------------------------------
B---------14--12-14--12--------------------------------
G-----------------------14--13--11-----9---------------
D------------------------------------------------------
A------------------------------------------------------
E------------------------------------------------------

e--14--12----------------------------------------------
B---------14--12-14--12-----12-14--B15--14--12---------
G-----------------------14-----------------------------
D------------------------------------------------------
A------------------------------------------------------
E------------------------------------------------------

("B" indicates a bend up to the note that would be at the 15th fret)

octave buildup: A / B / C# / D / E  (2nd guitar continues up F# / G# )

chorus
intro chords with keyboard melody 4x (slow down on 3rd & 4th times)
bridge acoustic / no distortion

                       A / B / A / G# / F#
distortion on again for "candy coated eyes"

song runs approximately 4:00

=====================================================================
http://www.ozmaonline.com
ozma@ozmaonline.com
=====================================================================

imatreeandurnot

2. Just Tell Me When

Tab transcribed by d. brummel.

=====================================================================
ozma guitar tablature: if my amp had wheels
as performed on the CD "songs of inaudible trucks and cars."
copyright (c) 1999 ozma/toilet zone music.
transcribed by d. brummel.
=====================================================================
Tuned down one half step. Eb, Ab, Db, Gb, Bb, Eb.
///crashes/// Beginning chords:
.B5. . . .A5 . . . E5. . . .F#5
------------------------------------
------------------------------------
----------2-2-2---------------------
-4-4-4----2-2-2----2-2-2----4-4-4---
-2-2-2----0-0-0----2-2-2----4-4-4---
-------------------0-0-0----2-2-2---



Keyboard part tabbed for lead guitar:
.B . . . A . . . E. . . .F# . . .
----------------------------------
----------------------------------
-8----9--6----8-------8--6--------
-----------------9----------9--8--
----------------------------------
----------------------------------



Alternate keyboard part, played at end of every keyboard phrase:
.B . . . A . . . E. . . .F# . . . . B
---------------------------------------
---------------------------------------
-8----9--6----8-------8--9----8--6--8--
-----------------9-------11---9--8--9--
---------------------------------------
---------------------------------------


///verse one///
B. . F# . . .E. . . F#
just tell me when
you don't like me anymore
i hate to see you running out like this but hey
it's been done before

///keyboard part (see above)///
///verse two///
i live alone
and think of you at night
i walk the dog
and pick up the poop, yeah

///chorus w/keyboard part (played over vocals, 2x)///
B . . A . . E . . F#
honey, honey, honey, just tell me when
honey, honey, honey, i'll be back again
///post chorus///
B . . A . . E . . F#
..................i'll be back again ..................i'll be back again ..................i'll be back again ..................i'll be back again
///verse three///
i'm not like you
i like my rock and roll
i sleep in the day
wasting my life away, yeah
///chorus///
///bridge buildup*///
E . .F#m
just tell me
just tell me
just tell me when
*2nd guitar plays this part at bridge buildup:
.E . . . . . . . F#m . . . . . . E. . . . . . . .
--------------------------------------------------
--------------------------------------------------
-4-4-4-4-4-4-4-4-6-6-6-6-6-6-6-6-8-8-8-8-8-8-8-8--
--------------------------------------------------
-2-2-2-2-2-2-2-2-4-4-4-4-4-4-4-4-6-6-6-6-6-6-6-6--
--------------------------------------------------


.F#m. . . . . . . . .E . . . . . . . . . . . F#m . . . . . . . . . . E .
------------------------------------------------------------------------
------------------------------------------------------------------------
-9-9-9-9-11-11-13-13-15-15-15-15-16-16-16-16-18-18-18-18-16-16-15-15-16-
------------------------------------------------------------------------
-7-7-7-7-9--9--11-11-13-13-13-13-14-14-14-14-16-16-16-16-14-14-13-13-14-
------------------------------------------------------------------------

///post chorus (w/keyboard part 2x and guitar playing thirds over)/// ///verse four (sans instruments, only drums)///
i saw you today
you blew my mind away (B chord slide)
and drove the car
right off of the cliff yeah

///crashes///

imatreeandurnot

December 22, 2005, 06:14:55 pm #2 Last Edit: December 22, 2005, 06:34:30 pm by imatreeandurnot
3. Rain of the Golden Gorilla


Tab transcribed by "Jason the Great" ;)


tuning: 1/2 step down

INTRO

G, D/A, C, E, B, E, B, (x2)

Keyboard arranged for guitar

eb|---------------------------|
Bb|---------------------------|
Gb|-------5-4-----5-4-----5-4-|
Db|-5-4-5-----5-4-----5-4-----|x2
Ab|---------------------------|
Eb|---------------------------|
    G       B       G       B



FIRST VERSE

  I see you every day, but I tear my eyes away
G                 D/A                      C
Cause if you can't be mine, I don't wanna waste my time, I don't wanna waste my time
                      E                   B            E               B
  I see you every day, but I tear my eyes away
G                 D/A                      C
Cause if you can't be mine, I don't wanna waste my time, I don't wanna waste my time
                      E                   B            E               B

(keyboard interlude)


SECOND VERSE

  I see you know and then, but I look away again
G                    D/A                    C
Cause if you're not the one i'm for, I don't wanna suffer anymore, I don't wanna suffer anymore
                                 E                 B              E               B
  I see you know and then, but I look away again
G                    D/A                    C
Cause if you're not the one i'm for, I don't wanna suffer anymore, I don't wanna suffer anymore
                                 E                 B              E               B
I don't wanna suffer anymore, I don't wanna suffer anymore
              B              E               B        A           E

Keyboard fill, arranged for guitar

eb|-----------|
Bb|-----------|
Gb|-----------|
Db|-5-7-5---5-|
Ab|-------7---|
Eb|-----------|

(keyboard interlude)


THIRD VERSE

  I know the end is near, but it has been since the start,
G                   D/A                             C
But that still doesn't mean, That I could keep you from my heart, That I could keep you from my heart
                       E                  B                E                   B                G
  I know the end is near, but it has been since the start,
G                   D/A                             C
But that still doesn't mean, That I could keep you from my heart, That I could keep you from my heart
                       E                  B                E                   B                E
I couldn't keep you from my heart, I couldn't keep you from my heart,
           B                E                 B                A               E

A, E


BRIDGE

Keyboard arranged for guitar

eb|-------3-2-----3-2-----3-2-|
Bb|-3-2-3-----3-2-----3-2-----|
Gb|---------------------------|
Db|---------------------------|x2
Ab|---------------------------|
Eb|---------------------------|
    D       F#      D       F#

E, B, E, B, E, B, E, B,


FOURTH VERSE

  I see you every day, but I tear my eyes away
G                 D/A                      C
Cause if you can't be mine, I don't wanna waste my time, I don't wanna waste my time
                      E                   B            E               B
  I see you every day, but I tear my eyes away
G                 D/A                      C
Cause if you can't be mine, I don't wanna waste my time, I don't wanna waste my time
                      E                   B            E               B
I don't wanna waste my time, I don't wanna waste my time
E              B            E               B


(keyboard interlude x2)

E, B, E, B, E, B, E, B,

imatreeandurnot

4. Maybe in an Alternate Dimension

This tab is missing! Maybe you have it written down somewhere? Neato! Send it to either via email to Joe or Rieg or via Private Message to Jason or Joe or Rieg!
Ofcourse you will be credited and your tab will be posted here unedited!

In the meanwhile, you can see the DDD version

imatreeandurnot

December 22, 2005, 06:20:20 pm #4 Last Edit: December 22, 2005, 06:30:26 pm by imatreeandurnot
5. Los Angelas

Tab transcribed by d. brummel.


=====================================================================
ozma guitar tablature: Los Angeles
as performed on the CD "Songs of Inaudible Trucks and Cars"
copyright (c) 1999 slegr/galvez/brummel.
transcribed by mike k.
=====================================================================

This song is in G, but since guitars and bass are both tuned down
one half step down, the song sounds in F#.

notation:
s - slide from first note up to second

Intro/First Verse Riff:
If you're in a band with two guitars, play it like Ozma:
Guitar 1:
e--------------------
B--------------------
G--------------------
D--555-----555-------
A------575-----575---
E--------------------
Guitar 2:
e--------------------
B--888-----888-------
G------797-----797---
D--------------------
A--------------------
E--------------------

If you haven't got two guitars:
e----------------------------------------------------------
B----------------------------------------------------------
G-12-12-12-------------------------------------------------
D-----------12-14-12---------------------------------------
A-10-10-10-------------------------------------------------
E-----------10-12-10---------------------------------------

Play riff at the stars:

            *             *                   
It's friday night,I gotta moan
             *            *
Coz it's not right, to be alone 
        E5  D5   *
And i'm alone

And so I sleep, and wake at dawn
And leave before the moon is gone
I know it's wrong

Instrumental Part 1:
Chords are E5 C5 G5 C5
Solo (there are two lead lines, but the only difference is the ending on one of them:

Lead line 1:
e-------------------10s12----------------------------------
B-------------15-12----------------------------------------
G-------14-12----------------------------------------------
D-14-12----------------------------------------------------
A----------------------------------------------------------
E----------------------------------------------------------

Lead line 2:
e----------------------------------------------------------
B-------------15-12--10s12s10------------------------------
G-------14-12-----------------12---------------------------
D-14-12----------------------------------------------------
A----------------------------------------------------------
E----------------------------------------------------------

Verse 2:
G5                        C5
i've got to find some way out of here
E5                   D5
jump on a plane and i disappear
G5            C5
maybe east of ohio
E5                  D5
maybe that's where i ought to go

G5                B5
cause living here i've got so down
C5                              E5    D5   
i guess that's why i've got to leave town
G5                  C5
to find some place i haven't found
        E5               D5        G5      G/F#5
cause i know that you'll be there waiting

Chorus:

E5 
back back honey take me back baby
G5
wanna stay in LA
E5
back back honey take me back sugar
G5          B5 C5 E5 D5
I wanna staaaaay

Back to Verse Riff:

When I get home, the house is dark
The only sound is joey's bark

Instrumental Part 1 again ("bark like doggy!")
Verse Part 2 again ("we love it!")

Lead Part 3:
e-12-10h12p10----------------------------------------------
B-------------12-10---10s12-12-10h12p10-----------12-------
G-------------------12------------------12-9----9----------
D--------------------------------------------12------------
A----------------------------------------------------------
E----------------------------------------------------------

e-10s12-10h12p10-------------------------------------------
B----------------12-10---10s12-12-10h12p10-----------12----
G----------------------12------------------12-9----9-------
D-----------------------------------------------12---------
A----------------------------------------------------------
E----------------------------------------------------------
Repeat Instrumental Part 1, with Lead Part 3 in throw in at the end
Finally there's some more Verse 2 action before

E5    D5       G5
I , I live, in LA

now *thats* a rock'n'roll masterpiece. comments/questions to mikeweezer@email.com

imatreeandurnot

December 22, 2005, 06:20:44 pm #5 Last Edit: December 22, 2005, 06:30:44 pm by imatreeandurnot
6. If My Amp Had Wheels

Tab transcribed by d. brummel.

=====================================================================
ozma tablature: if my amp had wheels
bassline by daniel brummel.
as performed on the CD "songs of inaudible trucks and cars."
copyright (c) 1999 slegr/galvez.
tablature transcribed by d. brummel.
=====================================================================

"if my amp had wheels" is played in the key of A major, in 4/4 time.
guitars and bass are both tuned down one half step, so the song sounds
in Ab.

guitars roll the volume knobs in after hitting an A chord.

e---0----------------------------------------------------------------
b---2----------------------------------------------------------------
g---2----------------------------------------------------------------
d---2----------------------------------------------------------------
a---0----------------------------------------------------------------
E--------------------------------------------------------------------

verse chords played as such:

.A . . . . . . . F#m . . . . . . . A. . . . . . . .F#m . . . . . . .
e--------------------------------------------------------------------
b--------------------------------------------------------------------
g--------------------------------------------------------------------
d-7-7-7-7-7-7-7---4-4-4-4-4-4-4-4---7-7-7-7-7-7-7---4-4-4-4-4-4-4-4--
a-7-7-7-7-7-7-7---4-4-4-4-4-4-4-4---7-7-7-7-7-7-7---4-4-4-4-4-4-4-4--
E-5-5-5-5-5-5-5-0-2-2-2-2-2-2-2-2-0-5-5-5-5-5-5-5-0-2-2-2-2-2-2-2-2-0

.A . . . A/G#. . .F#m. . . D . . . .A . . . .D . . . .E . . . . . . .
e--------------------------------------------------------------------
b--------------------------------------------------------------------
g--------------------------------------------------------------------
d-7-7-7-7-7-7-7-7-4-4-4-4--7-7-7-7-7-7-7-7--7-7-7-7-9-9-9-9-9-9-9-9-9
a-7-7-7-7-7-7-7-7-4-4-4-4--5-5-5-5-7-7-7-7--5-5-5-5-7-7-7-7-7-7-7-7-7
E-5-5-5-5-4-4-4-4-2-2-2-2----------5-5-5-5---------------------------

the rock guitar interlude...

.C#m . . E . . A . . . . . . D . C# . B . . . . . .E . . . . . . . .
e--------------------------------------------------------------------
b--------------------------------------------------------------------
g-6-6-6--9-9-9---------------7-7--6-6--4-4-4-4-4-4--9-9-9-9-9-9-9-9-9
d---------------7-7-7-7-7-7------------------------------------------
a-4-4-4--7-7-7---------------5-5--4-4--2-2-2-2-2-2--7-7-7-7-7-7-7-7-7
E---------------5-5-5-5-5-5------------------------------------------

///keyboard solo over verse chords (tabbed for guitar below)///

e-----------------------------2-0---------------------------2---2-0--
b-----2------------2--5--2--------2-0-2-2--------2-2----------2------
g-2-4---4-2----2-4-----------2---------------2-4-----4-4-2-----------
d--------------------------------------------------------------------
a--------------------------------------------------------------------
E--------------------------------------------------------------------



=====================================================================
http://www.ozmaonline.com
ozma@ozmaonline.com
=====================================================================


imatreeandurnot

December 22, 2005, 06:22:17 pm #6 Last Edit: December 22, 2005, 06:38:39 pm by imatreeandurnot
7. Shootingstars (live)

This tab is missing! Maybe you have it written down somewhere? Neato! Send it to either via email to Joe or Rieg or via Private Message to Jason or Joe or Rieg!
Ofcourse you will be credited and your tab will be posted here unedited!

In the meanwhile, you can check out the RRP3 version

imatreeandurnot

8. Natalie Portman Intro (demo)

Just do a power solo

imatreeandurnot

December 22, 2005, 06:23:46 pm #8 Last Edit: December 22, 2005, 06:39:17 pm by imatreeandurnot
9. Natalie Portman (demo)

This tab is missing! Maybe you have it written down somewhere? Neato! Send it to either via email to Joe or Rieg or via Private Message to Jason or Joe or Rieg!
Ofcourse you will be credited and your tab will be posted here unedited!

In the meanwhile, you can check out the RRP3 version

imatreeandurnot

December 22, 2005, 06:25:25 pm #9 Last Edit: December 22, 2005, 06:32:24 pm by imatreeandurnot
10. Iceland

Tab transcribed by Mike K mikeweezer44[at]netscape.net


Tuned half-step down

Intro
E(let ring)

Lead Guitar (w/ wah)
e------------------0-------0--------7-7-7-9-
b-----------9-9-9-9-9-9-9-9-9-9-9-9--------
Rhythm Guitar
F# B D E

Verse
F# A B E
i am over you now
and i guess that's the way it's supposed to be
but there's something inside that calls me back to you
and i know that there's something wrong with me
(is it wrong with you too?)

(repeat intro)
but the keyboard is with me
but the keyboard will keep me company
but the keyboard is with me
but the keyboard will keep me holding on

A C# D E
she left for iceland
we lived a techno fantasy
we loved to listen
to our rock and roll part three

(repeat intro)
i am over you now
and i guess that you don't give a damn
but now the feeling's gone
and i'm starting to understand

breakdown

Guitar 2
a)
feedback
e------------------------------------------
b------------7------9------11------12------
g------------9b11---11b13--13b15---14b16--- do twice
d------------------------------------------
a------------------------------------------
E------------------------------------------

b)
*after second time
e----------------------
b--12------12-----12--- over and over until Ryen's solo
g--14b16---14b16--14b16
d----------------------
a----------------------
E----------------------

Guitar 1

come in after guitar 1 has done breakdown a) twice

e------------------------------------------
b------------7------9------11------12------
g------------9b11---11b13--13b15---14b16--- do twice
d------------------------------------------
a------------------------------------------
E------------------------------------------

*then play solo*

solo

e-------------------------------------------------------------------------------------------------------
b-------------------------------------------------------------------------------------------------------
g--/11-11----------9h11---------------------------------------------------------------------------------
d---------14--14---------------11b13b11b11b11----------------------------11-11-11-11--------------------
a-----------------------11-11-----------------12---12-14--12--14--12-14--------------14-14-14-14--12--14
E-------------------------------------------------------------------------------------------------------

e---------------------------------------------------------------------------
b----------------------14--14--14--12-----12----12---12b--12b--12b--12b--12b
g--/11--11-----11----------------------14----14-----------------------------
d----------14-----14--------------------------------------------------------
a---------------------------------------------------------------------------
E---------------------------------------------------------------------------

imatreeandurnot

December 22, 2005, 06:25:52 pm #10 Last Edit: December 22, 2005, 06:39:12 pm by imatreeandurnot
11. Baseball (live)

This tab is missing! Maybe you have it written down somewhere? Neato! Send it to either via email to Joe or Rieg or via Private Message to Jason or Joe or Rieg!
Ofcourse you will be credited and your tab will be posted here unedited!

In the meanwhile, you can check out the RRP3 version

Go Up