July 20, 2017, 10:49:59 pm

News:

If you can read this, Samuel is still a ph@gg0t


[Guitar] Pasadena

Started by amish, May 09, 2007, 10:16:05 am

previous topic - next topic

0 Members and 1 Guest are viewing this topic.

Go Down

amish

Author/Artist: Ozma - D.Brummel
Title: I Wonder
Album: Pasadena
Transcribed by: Brent Wirth
Email: brent_mindset@hotmail.com

CHORD CHART

-----3----------2------x----3------3-------2----1----2----0---0--3---0-----0-----0---3---
-----2----------3--5---3----0------0-------2----2----2----0---0--0---0-----3-----3---3---
-----0----------2--3---4----0------2-------2----2----3----2---1--0---0-----1-----2---2---
-----0----------0--2---4----0------0-------2----3----4----2---2--0---4-----2-----2---0---
-----x----------x--4---2----x------x-------0----x----4----2---2--2---2-----2-----0---x---
-----x----------x--2---x----x------x-------x----x----2----0---0--3---0-----0-----x---x---
A7/Dadd11  D F#7 Bm  G/D  D6sus4  A6  Faug F#  Esus E  G Em/F# E7 Asus Dsus

INTRO

-3---3-3-3-3-3-2-2-2-2-2-2-2-2---------------------------------------
-2---2-2-2-2-2-3-3-3-3-3-3-3-3---5-5-5-5-5-5-5-3-3-3-3-3-3-3-3-
-0---0-0-0-0-0-2-2-2-2-2-2-2-2---3-3-3-3-3-3-3-4-4-4-4-4-4-4-4-
-0---0-0-0-0-0-0-0-0-0-0-0-0-0---2-2-2-2-2-2-2-4-4-4-4-4-4-4-4-
---------------------------------------4-4-4-4-4-4-4-2-2-2-2-2-2-2-2-
---------------------------------------2-2-2-2-2-2-2--------------------
                                                                             

-3-3-3-3-3-3-3-3-3-3-3-3-3-3-3-3-2-2-2-2-2-2---2-2-2-2-2-2-2---2-2-2-2-2-2-2-
-2-2-2-2-2-2-2-0-0-0-0-0-0-0-0-0-3-3-3-3-3-3---2-2-2-2-2-2-2---3-3-3-3-3-3-3-
-0-0-0-0-0-0-0-0-0-0-0-0-2-2-0-0-2-2-2-2-2-2---2-2-2-2-2-2-2---2-2-2-2-2-2-2-
-0-0-0-0-0-0-0-0-0-0-0-0-0-0-0-0-0-0-0-0-0-0---2-2-2-2-2-2-2---0-0-0-0-0-0-0-
--------------------------------------------------------0-0-0-0-0-0-0-------------------
-------------------------------------------------------------------------------------------
                                                                             

-2-2-2-2-2-2-2-2-2-|
-2-2-2-2-2-2-2-2-2-|
-2-2-2-2-2-2-2-2-2-|
-2-2-2-2-2-2-2-2-2-|
-0-0-0-0-0-0-0-0-0-|
-----------------------|
                                                                             
VERSE

-3-3-3-3-3-3-3-2-2-2-2-2-2-2-2---------------------------------------
-2-2-2-2-2-2-2-3-3-3-3-3-3-3-3---5-5-5-5-5-5-5-3-3-3-3-3-3-3-3-
-0-0-0-0-0-0-0-2-2-2-2-2-2-2-2---3-3-3-3-3-3-3-4-4-4-4-4-4-4-4-
-0-0-0-0-0-0-0-0-0-0-0-0-0-0-0---2-2-2-2-2-2-2-4-4-4-4-4-4-4-4-
---------------------------------------4-4-4-4-4-4-4-2-2-2-2-2-2-2-2-
---------------------------------------2-2-2-2-2-2-2--------------------
Hold__________on before you    break_______me.                         

                                                                 1st ENDING

-3-3-3-3-3-3-3-3-3-3-3-3-3-3-3-3-|-2-2-2-2-2-2---2-2-2-2-2-2-2-2-2-|
-2-2-2-2-2-2-2-0-0-0-0-0-0-0-0-0-|-3-3-3-3-3-3---2-2-2-2-2-2-2-2-2-|
-0-0-0-0-0-0-0-0-0-0-0-0-2-2-0-0-|-2-2-2-2-2-2---2-2-2-2-2-2-2-2-2-|
-0-0-0-0-0-0-0-0-0-0-0-0-0-0-0-0-|-0-0-0-0-0-0---2-2-2-2-2-2-2-2-2-|
---------------------------------------|------------------0-0-0-0-0-0-0-0-0-|
---------------------------------------|----------------------------------------|
Give________me_____one more   chance.                                 

                                   2nd ENDING

-2-2-2-2-2-2---2-2-2-2-2-2-2---2-2-2-2-2-2---1-1-1-1-1-1-1-1-1-||
-3-3-3-3-3-3---2-2-2-2-2-2-2---3-3-3-3-3-3---2-2-2-2-2-2-2-2-2-||
-2-2-2-2-2-2---2-2-2-2-2-2-2---2-2-2-2-2-2---2-2-2-2-2-2-2-2-2-||
-0-0-0-0-0-0---2-2-2-2-2-2-2---0-0-0-0-0-0---3-3-3-3-3-3-3-3-3-||
-----------------0-0-0-0-0-0-0-----------------------------------------||
--------------------------------------------------------------------------||
chance____to prove            my love         to you.  You can't e-               

PRE-CHORUS

-2-2-2-2-2-2-2-2-2-222-2-2-2-2-2----0-0-0-0-0-0-0-0-0-0-0-0-0-0-0-0-
-3-3-3-3-3-3-3-3-2-222-2-2-2-2-2----0-0-0-0-0-0-0-0-0-0-0-0-0-0-0-0-
-4-4-4-4-4-4-4-4-3-333-3-3-3-3-3----2-2-2-2-2-2-2-2-1-1-1-1-1-1-1-1-
-4-4-4-4-4-4-4-4-4-444-4-4-4-4-4----2-2-2-2-2-2-2-2-2-2-2-2-2-2-2-2-
-2-2-2-2-2-2-2-2-4-444-4-4-4-4-4----2-2-2-2-2-2-2-2-2-2-2-2-2-2-2-2-
--------------------2-222-2-2-2-2-2----0-0-0-0-0-0-0-0-0-0-0-0-0-0-0-0-
xist in the world without being    a  part of the world and somehow thats       

-3-3-3-3-3-3-3-3-------0--------0---------------|-2-222-2-2-2-2-2-3-333-3-3-3-3-||
-0-0-0-0-0-0-0-0-------0--------0---------------|-3-333-3-3-3-3-3-3-333-3-3-3-3-||
-0-0-0-0-0-0-0-0-------0--------0---------------|-4-444-4-4-4-4-4-4-444-4-4-4-4-||
-0-0-0-0-0-0-0-0-------4--------4---------------|-4-444-4-4-4-4-4-3-333-3-3-3-3-||
-2-2-2-2-2-2-2-2-------2--------2---------------|-2-222-2-2-2-2-2-5-555-5-5-5-5-||
-3-3-3-3-3-3-3-3-------0--------0---------------|---------------------3-333-3-3-3-3-||
comforting when you're not where you want to be.                                    But

CHORUS

-2-2-2-2-2-2-2-2-0-0-0-0-0-0-0-0-0-0-0-0-0-0-0-0-3-3-3-3-2-2-2-2-
-3-3-3-3-3-3-3-3-3-3-3-3-3-3-3-3-3-3-3-3-2-2-2-2-3-3-3-3-3-3-3-3-
-2-2-2-2-2-2-2-2-1-1-1-1-1-1-1-1-2-2-2-2-2-2-2-2-2-2-2-2-2-2-2-2-
-0-0-0-0-0-0-0-0-2-2-2-2-2-2-2-2-2-2-2-2-2-2-2-2-0-0-0-0-0-0-0-0-
--------------------2-2-2-2-2-2-2-2-0-0-0-0-0-0-0-0----------------------
--------------------0-0-0-0-0-0-0-0-----------------------------------------
time       it is   a living thing.   I   wonder what  to-day will bring I             

-2-2-2-2-2-2-2-2---3-3-3-3-3-3-3-3-0-0-0-0-0-0-0-0-0-0-0-0-0-0-0-0-||
-3-3-3-3-3-3-3-3---0-0-0-0-0-0-0-0-3-3-3-3-3-3-3-3-2-2-2-2-2-2-2-2-||
-4-4-4-4-4-4-4-4---0-0-0-0-0-0-0-0-2-2-2-2-2-2-2-2-2-2-2-2-2-2-2-2-||
-4-4-4-4-4-4-4-4---0-0-0-0-0-0-0-0-2-2-2-2-2-2-2-2-2-2-2-2-2-2-2-2-||
-2-2-2-2-2-2-2-2---2-2-2-2-2-2-2-2-0-0-0-0-0-0-0-0-0-0-0-0-0-0-0-0-||
----------------------3-3-3-3-3-3-3-3----------------------------------------||
wonder what the stars will have in store for us.         

From this point, the structure repeats (though it is only a single verse, not a double verse, the second time around).

All the best,
-Brent   

amish

Artist/Author: Ozma ââ,¬â€œ D.Brummel and R.Slegr
Title: Incarnation Blues
Album: Pasadena
Transcribed by: Brent Wirth
Email: brent_mindset@hotmail.com

Tuned 1/2 Step Down (Eb Bb Gb Db Ab Eb)

VERSE:

G5                      C5    C5/B      A5                    B5        C5
         Knew weââ,¬â,,¢d never stand a  chance we were slave to circumstance
G5                      C5           C5/B       A5                          B5      C5   
                Maybe weââ,¬â,,¢d have seen this through if you were me and I was you
A5                      B5           C5    A5            B5             
                Out of mind and body too got the incarnation blues

At the ââ,¬Å"incarnation blues partââ,¬Â, to those of you who want to play full chords, the B minor modulates to a B major (ie. the third is raised by a semi-tone).  However, no change is needed when playing the power chords.

CHORUS:

          Bb5            C5      D5               D5/C#          C5            F5
Cause time moves slowly when youââ,¬â,,¢re alone with no way to be loved

SOLO: (same as verse)

PRE-CHORUS: (instrumental break)

No chords until the bass re-enters in which case the chord is G5

CHORUS 2:

          Bb5             C5     D5               D5/C#          C5                     Eb5  F5
Cause time moves slowly when youââ,¬â,,¢re alone with no way to be loved

VERSE:

G5                      C5     C5/B     A5                     E5        D5
         Knew weââ,¬â,,¢d never stand a  chance we were slave to circumstance
G5                       C5           C5/B       A5                         E5      D5   
                Maybe weââ,¬â,,¢d have seen this through if you were me and I was you
C5                      E5           D5   C5             E5     D5                   
                Out of mind and body too got the incarnation blues
C5                      E5           D5   C5             E5     D5    C5                     
                Out of mind and body too got the incarnation blues

End on G5

Thanks and all the best,
-Brent

amish

Artist/Author: Ozma ââ,¬â€œ D.Brummel and S.Wick
Title: Heartache Vs. Heartbreak
Album: Pasadena
Transcribed by: Brent Wirth
Email: brent_mindset@hotmail.com

Tuned 1/2 Step Down (Eb Bb Gb Db Ab Eb)

VERSES/SOLO:

C#m  A          E          F#5   
Heartache will get you down but your
C#m A                      E                   B
Body heals once your love has been found
C#m  A         E              G#           
Heartbreak is something else when you
C#m        A          E                      B
Just can't cure the pain that you've found

PRE-CHORUS:

F#
                 And we almost believed it was
C#
Love         yeah, we nearly perceived it as
F#m                         A                   B
Love       you know I     would have sworn it was

CHORUS:

E                   Am         F#m  G#   
Love   but my mind and body fail me
E                  Am      F#m     B
Now and my shining armor's rusted
C#m                           F#
Now it could have been love it should have been
A                    Bbdim
Love

From this point, the structure basically repeats.  The verses, pre-choruses and choruses are all the same and the verse progression is played during the solo.

amish

Ozma - "Incarnation Blues"
Transcribed by: Caleb Brown
Email: ozmacity@yahoo.com


Tune down 1/2 step

Verse 1:

G                   C      C/B      Am                    B          C        G
   Knew weââ,¬â,,¢d never stand a chance we were slave to circumstance
               C            C/B        Am                      B        C       Am
   Maybe weââ,¬â,,¢d have seen it through if you were me and I was you
               B           C     Am            B      C       Am                B
   Out of mind and body too got the incarnation bluuuuuuuuuuuuues


Verse 2:

G                  C       C/B   Am                  B            C        G
   Know we'll never meet again but in this life, you were a friend
             C        C/B      Am                     B             C               Am   
   so i'll hold out for the next won't be so sorrowed, cursed and vexed
               B           C     Am            B      C       Am                 B
   Out of mind and body too got the incarnation bluuuuuuuuuuuuues


Chorus:

           Bb               C       Dm           Dm/C#            C                 F
Cause time moves slowly when youââ,¬â,,¢re alone with no way to be loved


Solo chords: G--C--C/B--Am--B--C--G   C--C/B--Am--B--C--Am
             
               B            C    Am            B      C       Am                B
   Out of mind and body too got the incarnation bluuuuuuuuuuuuues


(Instrumental section) end on G


Chorus:

          Bb                C       Dm            Dm/C#           C                 F
Cause time moves slowly when youââ,¬â,,¢re alone with no way to be loved



End Verse/Chorus:
G                   C      C/B       Am                   E          D        G
   Knew weââ,¬â,,¢d never stand a chance we were slave to circumstance
               C            C/B       Am                        E       D         C
   Maybe weââ,¬â,,¢d have seen it through if you were me and I was you
               E            D     C              E      D        C           
   Out of mind and body too got the incarnation blues
               E            D     C             E       D        C         G
   Out of mind and body too got the incarnation bluuues

amish

May 19, 2007, 01:48:25 pm #4 Last Edit: May 19, 2007, 04:59:49 pm by Joe
barriers
Eb tuning

verse 1:

Bb               Gb       Ab
black for the hearts below

Bb               Gb       Ab
white meat to melt the show

Db        Gb   Ab
bury the domino

             Gb
a symbol of your past confession

E     
it's only a worthless detention

Chorus:
B              G
you and me, i'm sure

A                       G            B               G
breaking down the barriers of love and war

                         A           G
we're breaking the barriers



Verse 2:

Bb               Gb       Ab
criss cross the signal flow

Bb               Gb          Ab    A
life where no life should go

Db               Gb           Ab
know what no one needs to know
             Gb
when memory in fact is friction

E
you're choosing the world that you live in


Chorus


Bridge:
                        E           G   Eb   B   C   G Gb  A
we're breaking the barriers  oh   oh  oh  oh  ohoh

E           G   Eb   B   C   Db D

E           G   Eb   B   C   G Gb  A

E           G   Eb   B   C   Db D

Chorus chords:
you and me, i'm sure
lost between the memories of life before
we built up the barriers

chorus
chorus
chorus

- Thanks to 'hipsun'



Barriers solo

tabbed by Vincent Poprocky/CT-700

Eb Tuning

I've broken it into 4 segments considering there are four distinct parts.
This is the basic guitar part, no harmonies. Its sounds to be how Ryen plays it live.

-----------------------

b - bend to pitch
/ - slide up to note
\ - Slide down neck (to nut)
h - hammer-on
p - pull-off

-----------------------

  "whoa oh oh oh"
e:--------------------------------------------
b:--------------------------------------------
g:-14---12-11-9---7-6-4-----------------------
d:--------------------------------------------
a:--------------------------------------------
e:--------------------------------------------

e:--------------------------------------------
b:-3-5--5-6-8\---3-5/7-5---7-----8------10----
g:-------------------------9b11--10b12--12b14-
d:--------------------------------------------
a:--------------------------------------------
e:--------------------------------------------

e:-5-7-7--5-7-7--5-7-5--3-2-0-----------------
b:-----------------------------3-2-5----------
g:--------------------------------------------
d:--------------------------------------------
a:--------------------------------------------
e:--------------------------------------------

e:----------------------------------------17--
b:-15-17--17-18-20\---15-17b19-17--19--20-----
g:--------------------------------------------
d:--------------------------------------------
a:--------------------------------------------
e:--------------------------------------------

amish

Motorology 3:39 (Music by Slegr & Brummel, lyrics by Brummel)
Transcribed by Caleb Brown
ozmacity@yahoo.com


A                 Ab                     B                      G
lie detector's on the blink, so comfort me with doublethink
     F#m                      B                     Em
and let's put wallpaper up between our ears
               C                  Em                      C
over the years as my attention span disappears
                    D
blink and it's gone
                       G                       C
a moment has never seemed so long


D
i'm still dreaming of clock towers and synchronicity
      Bm       A            Bm     
you call it coincidence --    i call it common sense
D                                                                         A    F#m-G-A
  the truth will set you free if you've been slave to a lie


D                         A             G         D
i'm waiting for a chance to make it known
                          A                     G                     D
i'm gonna be the one who keeps you from being alone
          F#m            G
i call, i call, i call, i call
E
no one ever


A                 Ab             B                      G
used to be political, but now our state is critical
    F#m                     B                     Em
so let's put wallpaper up between our ears
                   C                Em                    C
once it was clear maybe i lost it over the years
                 D                   G                     C
maybe it's here buried beneath the dirt of fear
                       A   C             
maybe it's still here   (3x)


D
i'm still dreaming of clock towers and synchronicity
       Bm      A            Bm     
you call it coincidence --    i call it common sense
D                                                                         A    F#m-G-A
  the truth will set you free if you've been slave to a lie


D
i'm still dreaming in sound waves that oscillate and amplify
      Bm          A               Bm     
the feeling of nothingness,      oh what a subtle bliss
D                                                                       A    F#m-G-A
   the truth will set you free if you've been slave to a lie



D                         A            G          D
i'm waiting for a chance to make it known
                          A                     G                     D
i'm gonna be the one who keeps you from being alone
                         A             G         F#m
i've seen it all before, but i still can't tell
            Em                                   D
so you better ask somebody who knows


D                           A            G          D
  i'm waiting for a chance to make it known
                          A                     G                     D
i'm gonna be the one who keeps you from being alone
                         A             G         F#m
i've seen it all before, but i still can't tell
            Em                                 F#m
so you better ask somebody who knows
       Em                                 F#m
you better ask somebody who knows
       Em                                    D
you better ask somebody who knows

Go Up