Author Topic: [Guitar] Rock and Roll Part 3  (Read 11498 times)

0 Members and 1 Guest are viewing this topic.

Offline imatreeandurnot

  • Closet Boy
  • Sr. Member
  • ****
  • Posts: 898
  • Karma: 224
  • Gender: Male
  • I'M A BEAUTIFUL MERMAID
    • Poopsex.org
[Guitar] Rock and Roll Part 3
« on: December 20, 2004, 07:43:53 pm »
1. Domino Effect

Tab transcribed by d. brummel

====================================
ozma guitar tablature: domino effect
as performed on the CD "rock and roll part three."
copyright (c) 1999 slegr/galvez/brummel.
transcribed by d. brummel.
====================================

"Domino Effect" is played in the key of A major, in 4/4 time.
Guitars and bass are tuned down one half step, so the song
sounds in Ab.

Introduction, lead guitar, doubled by keyboard:
(For chords, see verse chords.)

e------------------------------------2-0-0---------------------------
B--2-0---2-2-3-0--0-----0-0-2------2-------3-3-2------0-3-3-3-2-2-1-2
G------2------------2-1-------2--2---------------1--1----------------
D--------------------------------------------------------------------
A--------------------------------------------------------------------
E--------------------------------------------------------------------


e--5-7-4-------4-5---4----9---10-7-6-7----7--9-5-4-5--4--------------
B--------7-6-7---------7----------------5---------------7--5-3--2-0--
G--------------------------------------------------------------------
D--------------------------------------------------------------------
A--------------------------------------------------------------------
E--------------------------------------------------------------------


Verse:
A             Bmi             E              A     A/G#
Chances last a finite time, in the warm July nighttime
F#mi            E                  Bmi    E    Bmi     A
Every care that keeps you from the beat is a care that carries...

Chorus:
D         E        C#7       F#mi
Sing that song you sang long ago
Dmaj7       E                C#mi (C#7) F#mi       (E)
A heartbeat so sure and slow hold me and don't let go
D   D/C#   Bmi  B/A  E
The fourteenth domino


Intro melody again, slightly different ending:

   A      Bmi     E       F         F  G    A
e--------------------------------------------------------------------
B--2-0---2-2-3-0--0-----0-0-1----------------------------------------
G------2------------2-1-------2-----2-0---0-2------------------------
D---------------------------------------3----------------------------
A--------------------------------------------------------------------
E--------------------------------------------------------------------

Instrumental section:

   D  E  C# F#   D            E          C#           F#
e--------------------------------------------------------------------
B--------------------------------------------------------------------
G-------------------6-4----------------4-6--4------------------------
D--7--9--6--4----7------7-6-4-2--2-4-6---6----5-6-4-3-4--------------
A--5--7--4--4----5--4-2-------2--------2-4--2------------------------
E-----------2-----------5-4-2-0--0-2-4--------5-4-2-1-2--------------

D D/C#   Bmi  B/A  E

Soft verse, normal verse chords.

Ending verse chords:

A              Bmi          E                  F
Chances last a finite time, and you're running out of time...

F G  A

F G  C

(begin C drone which starts "Apple Trees")


============================
http://www.ozmaonline.com
ozma@ozmaonline.com
============================














2. Apple Trees

Tab transcribed by d. brummel

======================
ozma guitar tablature: apple trees
as performed on the CD "rock and roll part three."
copyright (c) 1999 slegr/galvez/brummel.
transcribed by daniel brummel.
======================

"Apple Trees" is played in the key of C major, in 4/4 time.
Guitars and bass are tuned down one half step, so the song
sounds in B.

(C drone enters from "Domino Effect")

Verse 1, keyboard notes (tabbed for guitar)

C              Ab   G                C
Deep inside my eye, there is part of you
C                  Ab    G                    C
You still look the same, though you're upside down
Ami              Ab     G               C 
So much time has passed since I saw you last
Ami    G          /  Ab
Whoa...

Prechorus

Ami               F            G              C        Ab
An apple pie, the number pi, I studied you in math class
Ami   F                G              C      Emi
I did all my work, but never got your digits

Double guitar octaves:

 
e--------------------------------------------------------------------
B--5--4-5--7--9--7-9-11-12-------------------------------------------
G--------------------------------------------------------------------
D--3--2-3--5--7--5-7-9--10-------------------------------------------
A--------------------------------------------------------------------
E--------------------------------------------------------------------

Chorus:

Ami                Dmi      G         C     C/B
Take a number like 5, times 10, times 10 again
Ami   Dmi             G                 C     / Ab
Five hundred miles of apple orchards to defend

Verse 2
Prechorus 2
Double guitar octaves
Chorus 2
Guitar solo (same as verse chords)
Prechorus (skip the Double guitar octaves)
Chorus 3
Chorus 4
Double guitar octaves x2 (end on Ami chord)


======================
http://www.ozmaonline.com
ozma@ozmaonline.com
======================










3. Shootingstars

Tab transcribed by d. brummel

=====================================================================
ozma guitar tablature: shootingstars
as performed on the CD "rock and roll part three."
copyright (c) 1999 slegr/galvez/brummel.
transcribed by d. brummel.
=====================================================================

"Shootingstars" is played in the key of G major, in 4/4 time.
Guitars and bass are tuned down one half step, so the song
sounds in Gb.

Notation:
b - bend string up to next indicated note.
r - release bend back to next indicated note.
h - hammer onto the next indicated note
x - muted rake across indicated strings

Rhythm guitar intro (verse chords), play 4x and build up:

Emi  F#  G    C   Ami

Hard rock riff on G:

G  G   D  Emi  (3x)

    C C        D D       G G G
e------------------------3---------------------------------
B------------------------3---------------------------------
G------------------------0---------------------------------
D---7--7-5-5---9--9-7-7--0--------------------------------
A---3--3-3-3---5--5-5-5--2--------------------------------
E------------------------3---------------------------------


Verse 1 is almost all over a G chord:
G
I finally feel at ease, I'm on an eastern breeze
G                   /   C   G
It blows me to the shore


Prechorus:
C          Ami          G
Unless you say that you gave your heart away
C          Ami         G
Unless you say that I shouldn't have returned
C          D           Emi   F#  G  C  Ami
And in that case, I'll go


Chorus:
Emi                 G
Every night I see a shootingstar
                    C                D
And wonder if it's landing where you are
           Emi                       G
If you can see it then you can't be far
       C                         D
And if that's the way you do it, that's the way you find your love


Hard rock riff on G
Verse 2
Prechorus 2
Chorus 2 (altered lyrics)
Chorus 3
Hard rock riff on G

Guitar outtro:

    C C       D D        Emi         G
e----------------------------------------------------------
B----------------------------------------------------------
G----------------------------------------------------------
D---7--7-5-5--9--9-7-7---10-10-9-9-------------------------
A---3--3-3-3--5--5-5-5---7--7--7-7---10-9-7-5--------------
E---------------------------------------------7-5-3--------


Ending chords:

C  B C B  Ami


=====================================================================
http://www.ozmaonline.com
ozma@ozmaonline.com
=====================================================================












4. Natalie Portman

Tab transcribed by d. brummel

=====================================================================
ozma guitar tablature: natalie portman
as performed on the CD "rock and roll part three"
copyright (c) 1999 brummel
transcribed by adam zavala
=====================================================================

"Natalie Portman" is played in the key of A major, in 6/8 time.
Guitars and bass are tuned down one half step, so the song
sounds in Ab.

Notation:
b - bend string up to next indicated note.
r - release bend back to next indicated note.
h - hammer onto the next indicated note
x - muted rake across indicated strings

Verse 1 (keyboard, tabbed for guitar):

A                       E
I'm telling you a story now
C#                  D
of something that's wrong

/////play for all Verses////


Chorus:
F#m          D     F#m          D
Maybe she's alone, maybe she's alone
D              Dm
What can I do? What can I do?

        A                B
There's nothing, there's nothing
        C#            D
there's nothing i can do


/////play for all Choruses//////


Solo

e---9----7-5--9---7-------7---7-5-------------------------
B---------------------------------9--9b10r9---7--6--5-----
G---------------------------------------------------------
D---------------------------------------------------------
A---------------------------------------------------------
E---------------------------------------------------------

e-------4-5-7-9-10---9---7--12-----------14--12-----------
B---5-7--------------------------10-------x------10h12-13-
G-----------------------------------------x---------------     
D---------------------------------------------------------
A---------------------------------------------------------
E---------------------------------------------------------


=====================================================================
http://www.ozmaonline.com
ozma@ozmaonline.com
=====================================================================












5. The Ups and Downs

Tab transcribed by d. brummel

=====================================================================
ozma guitar tablature: the ups and downs
as performed on the CD "rock and roll part three."
copyright (c) 1999 slegr/galvez/brummel.
transcribed by d. brummel
=====================================================================

"The Ups And Downs" is played in the key of G major, in 4/4 time.
Guitars and bass are tuned down one half step, so the song
sounds in Gb.

Notation:
b - bend string up to next indicated note.
r - release bend back to next indicated note.
h - hammer onto the next indicated note
x - muted rake across indicated strings

Verse 1 (just rhythm guitar, voice, and snare drum):
          G               C             D
I've been cheating on you ever since we broke up
          G                  C            D
I've been dreaming about you ever since I woke up
          G                     C              D
And now my hearing's disappearing ever since you spoke up


Prechorus:
              Emi  E Eb D  C
I'll devise a plot...   to break your heart
Ami                       D
Think up a plan that I'll never carry out
Emi E Eb D  C           
What's wrong with you? 
Ami         D
Tell me now, what should I do?


Chorus:
G           C
Don't let me down
B7         Emi       D            G
I couldn't take much more of your love


Riff on G:

    G   A    Bmi
e----------------------------------------------------------
B----------------------------------------------------------
G----------------------------------------------------------
D---5---4-4---5-4--4-4-------------------------------------
A----------------------------------------------------------
E---3---5-5---7-7--7-7-------------------------------------


Verse 2
Prechorus 2
Chorus 2
Chorus 3
Chorus 4

Guitar melody outtro:

    G        Ami     Bmi
e----------------------------------------------------------
B---8---8-10-7---------------------------------------------
G-----7--------7-------------------------------------------
D----------------9---------------9-9-----------------------
A------------------10-9---10-9-7---------------------------
E----------------------------------------------------------

=====================================================================
http://www.ozmaonline.com
ozma@ozmaonline.com
=====================================================================












6. If I Only Had a Heart

Tab transcribed by d. brummel

=====================================================================
ozma guitar tablature: if i only had a heart
as performed on the CD "rock and roll part three."
copyright (c)1999 slegr/brummel.
transcribed by d. brummel
=====================================================================

"if i only had a heart" is played in the key of G major, in 4/4 time.
guitars and bass are both tuned down one half step, so the song sounds
in Gb.

notation:
b - bend string up to next indicated note.
r - release bend back to next indicated note.
h - hammer onto the next indicated note
x - muted rake across indicated strings
12* - harmonic at the 12th fret


clean electric guitar (doubled by bass) intro

e----------------------
B---------------12*----
G---------------12*----
D-----------4---12*----
A--------2-------------
E--0--3----------------



line played on lead guitar (in unison with keyboard)
as intro "disco" melody.

e-----------10-------------------10------------------
B---12--10-----12--10----12--10-----12-13-12---------
G----------------------9---------------------12------
D----------------------------------------------------
A----------------------------------------------------
E----------------------------------------------------

e-----------10-------------------10------------------
B---12--10-----12--10----12--10-----12-h13-12--------
G----------------------9----------------------12-----
D----------------------------------------------------
A----------------------------------------------------
E----------------------------------------------------



verse 1 chords:

G           E-        A- **              C
i'd give my heart if you'd give your attention
G           E-        A- **              C
but when i look there's just an open trench (and baby)
B                C              D                             G    A
i can't stand to see you, girl, showing off your silver party dress
B                C              D                             G    A    E-
no, you can't come over now the house ain't neat my room's a mess


** - guitars strum melody over the A- and C chords:
e-----------3--0--0----------
B--0--3--1--1--0--0--0-------
G-----2--2--2--2--0--2-------
D-----2--2--2--2--2--0-------
A-----0--0--0--0--3--3-------
E----------------------------



(repeat 2nd half of guitar solo section)
(repeat for verse 2.)


instrumental section chords:
E / F#- / G / A / B
F#- / G / A / B / C
G / A / B / C / D
A / B / C / D


melody line played on lead guitar (in unison with keyboard)
over the instrumental section is same as intro "disco" melody.

e-----------10-------------------10------------------
B---12--10-----12--10----12--10-----12-h13-12--------
G----------------------9----------------------12-----
D----------------------------------------------------
A----------------------------------------------------
E----------------------------------------------------



repeat verse chords for "i'd give my heart" section.

clean electric guitar ending:

e-----------3--0--0----------
B--0--3--1--1--0--0--0-------
G-----2--2--2--2--0--2-------
D-----2--2--2--2--2--0-------
A-----0--0--0--0--3--3-------
E----------------------------




=====================================================================
www.ozmaonline.com
=====================================================================











« Last Edit: December 20, 2004, 07:47:10 pm by imatreeandurnot »

Offline imatreeandurnot

  • Closet Boy
  • Sr. Member
  • ****
  • Posts: 898
  • Karma: 224
  • Gender: Male
  • I'M A BEAUTIFUL MERMAID
    • Poopsex.org
Re: [Guitar] Rock and Roll Part 3
« Reply #1 on: December 20, 2004, 07:44:18 pm »
7. Baseball

Tab transcribed by d. brummel

=====================================================================
ozma guitar tablature: baseball
as performed on the CD "rock and roll part three."
copyright (c)1999 brummel/slegr/galvez.
transcribed by d. brummel
=====================================================================

"Baseball" is played in the key of E major, in 4/4 time.
guitars and bass are both tuned down one half step, so the song sounds
in Eb.

notation:
b - bend string up to next indicated note.
r - release bend back to next indicated note.
h - hammer onto the next indicated note
x - muted rake across indicated strings
12* - harmonic at the 12th fret

Clean electric guitar intro:

e--0-0---0-2--------2-0-2-4-0------0-0---0-2----------------0--
B------4-----0-------------------------4-----0------0-0--------
G-------------------------------------------------------2-1----
D--------------------------------------------------------------
A----------0------2------------------------0------2---2--------
E--0----------------------0--------0----------------------0----

e--0-0---0-2--------2-0-2-4-0------0-0---0-2----------------0--
B------4-----0-------------------------4-----0------0-0--------
G-------------------------------------------------------2-1----
D--------------------------------------------------------------
A----------0------2------------------------0-------------------
E--0----------------------0--------0--------------3---2---0----


(Lead guitar plays clean melody an octave higher.)


Verse 1 chords:
       E                C#-     A           A-
When I feel the morning grass, I let down my guard
       E                   C#-      A          B
because love comes from the dirt in my own backyard


Prechorus:
      C#-                            A
Everytime I think I've finished being young
      B               A
I catch myself having fun
      C#-                            A
but the moment passes as the sun moves on
      B                  E     A
so I turn myself back to you


Clean guitar melody again
Verse 2
Prechorus 2

Chorus:
E             A      B            A
Is our season over?  No four leaf clover
E                   A      B                  A
I feel it's getting colder now that it's late fall
E                 A          B          A
But can you still remember?  April to november
E                A         G       F#-     E       A-
You and I were members of the best team in baseball


Bridge:

G#mi   C#mi    A
So we play our games
E          F#mi             C#mi          B 
I've got a girlfriend, you've found a new guy
A
but it's not the same


Guitar solo (use chorus chords)
Prechorus 3
Chorus 2
Outtro



=====================================================================
http://www.ozmaonline.com
ozma@ozmaonline.com
=====================================================================












8. Rocks

Tab transcribed by d. brummel

=====================================================================
ozma guitar tablature: rocks
as performed on the CD "rock and roll part three."
copyright (c) 1999 slegr/galvez/brummel
transcribed by greg, shredded77@hotmail.com
=====================================================================

"Rocks" is played in the key of G major, in 4/4 time.
guitars and bass are both tuned down one half step, so the song sounds
in Gb.

notation:
b - bend string up to next indicated note.
r - release bend back to next indicated note.
h - hammer onto the next indicated note
x - muted rake across indicated strings
12* - harmonic at the 12th fret

Intro (keyboard arranged for guitar) (play 2x)
  G          C     D    G       C   D  G       C      D  G   C D
e-10--------------------10------------10--------------------
B---12-10----10-12-10-----12-10---------12-10--10-12-10-----
G---------12---------12--------12-9----------12--------12-12
D----------------------------------12-----------------------
A-----------------------------------------------------------
E-----------------------------------------------------------

Verse:
G                 C     D      G             C    D
I've been lookin' for a way to find a way to find you
Etc.

Shout chorus:
Emi         G         Ami       Ami    C     D     G   G/F# 
Whoooooooooooooooooooooooooooooooooooooooooooooooooooooa
Etc.

Guitar Solo

  Emi       G         Ami    C      D    Emi  (then back to regular chords)
e-0-0-2-3-2-2-3-5-3-3-5-7-5-7-10-7-10-12-12--12-14-15-14h15p14p12
B----------------------------------------------------------------
G----------------------------------------------------------------
D----------------------------------------------------------------
A----------------------------------------------------------------
E----------------------------------------------------------------

e---17-15-14-15-17-14------12-14-14h15-14-12--12-----------------
B-15-----------------15-12------------------15-------------------
G-----------------------------------------------15-14-12---------
D----------------------------------------------------------------
A----------------------------------------------------------------
E----------------------------------------------------------------

e-----------14----------14----------14---------------------------
B-----15----------15----------15------15-17-15-------------------
G---12----12----12----12----12----12----------15p14p12-----------
D-14----14----14----14----14----14-------------------------------
A----------------------------------------------------------------
E----------------------------------------------------------------

e-----------14-14h15-14-12--12-----------------------------------
B-----15------------------15Ñ---------------------12-15-12-------
G---12----12-----------------14^-14^-14p12---12-14---------------
D-14----14---------------------------------14--------------------
A----------------------------------------------------------------
E----------------------------------------------------------------

e----------------12-12-------------------------------------------
B--------------15------------------------------------------------
G-14-12--12-14---------------------------------------------------
D------14--------------------------------------------------------
A----------------------------------------------------------------
E----------------------------------------------------------------

With chorus two times

e-12-12-15-14-12---12-15-14-12-----------------------------------
B---------------12------------12-11-12-11\-----------------------
G----------------------------------------------------------------
D----------------------------------------------------------------
A----------------------------------------------------------------
E----------------------------------------------------------------

=====================================================================
http://www.ozmaonline.com
ozma@ozmaonline.com
=====================================================================















9. Battlescars

Tab transcribed by d. brummel

=====================================================================
ozma guitar tablature: battlescars
as performed on the CD "rock and roll part three."
copyright (c)1999 brummel/slegr/galvez.
transcribed by d. brummel
=====================================================================

"Battlescars" is played in the key of D major, in 4/4 time.
guitars and bass are both tuned down one half step, so the song sounds
in Db.

notation:
b - bend string up to next indicated note.
r - release bend back to next indicated note.
h - hammer onto the next indicated note
x - muted rake across indicated strings
12* - harmonic at the 12th fret

Intro keyboard melody, tabbed for guitar:

e------------------------------------------------------------
B------------------------------------------------------------
G----------------------------------------------6-7-6---------
D--------------4-5-4---------4-5-7-5-4-----4-7-------9-7-----
A----------2-5-------7-5---5-----------7-5---------------9-7-
E--2-2-3-3---------------7-----------------------------------

Chorus melody intro, rhythm guitar plays this:
  F#mi G        Bmi  Emi      Emi  D        Bmi  A7
e------------------------------------------------------------
B------------------------------------------------------------
G------------------------------------------------------------
D----------------4-4-2-2-2-2---4-4-7-7-7-7---4-4-2-2-2-2-----
A--4-4-5-5-5-5---2-2-2-2-2-2---2-2-5-5-5-5---2-2-0-0-0-0-----
E--2-2-3-3-3-3-------0-0-0-0---------------------------------

Chorus melody intro, lead guitar plays this:

e------------------------------------------------------------
B---10-10-8-8-7-7-----------7-7-8-7--------------------------
G-----------------9-9-7-------------9-7-7--------------------
D-----------------------9-7----------------------------------
A------------------------------------------------------------
E------------------------------------------------------------


Verse 1:
G                 Emi      D     C
Of all the shootingstars I knew
G                Emi      D      C
I never felt at ease with anyone but you, etc...

Prechorus 1:
D               Bmi          F#mi     A7
When everything around turns blue
D                         Bmi      F#mi     A7
Just close your eyes and wake when it's all through

Chorus:
F#mi  G             Bmi  Emi          Bmi  D            Bmi  A7
There's battlescars on all my guitars but I still come out here and play


Verse 2
Prechorus 2
Prechorus 3
Chorus 2


Instrumental section (bass and keyboard together while guitars play octaves)

Guitar solo

Chorus 3
End with chorus chords, followed by outtro keyboard melody




=====================================================================
http://www.ozmaonline.com
ozma@ozmaonline.com
=====================================================================












10. In Search of 1998

Tab transcribed: Rieg and Sand Gaijin

Band: Ozma
Song: In search of 1988
Tabbed by: Rieg  worst-tabperson-ever@sitinthecorner.com  and Sand Gaijin (AIM: Sand Gaijin
Other:   <3 Sand Gaijin
Other note: <3 you all

Normal tuning
(normal tuna lololol)


Intro: E
Verse: A, B5, E5
Later: F#, b5, e5, D
Later (pt. 2): F#, b5, e5, A, C#, D
Chorus: A, C#, F#, D, A, E
slow part: E, D (repeat)


-----------------------|------------------------|
--1---------1-------4--|----4----2--1-2-1-------|
-------3---------3-----|-------------------3----|
-----------------------|------------------------|
-----------------------|------------------------|
-----------------------|------------------------|


So it'd be something like this:

  E


A5          B5                  E5
every time i start to remember

A5           B5                   E5
i remember i don't want to remember

F#5           B5                  E          D
warp me back at 88 if only for one day




-----------------------|------------------------|
--1---------1-------4--|----4----2--1-2-1-------|
-------3---------3-----|-------------------3----|
-----------------------|------------------------|
-----------------------|------------------------|
-----------------------|------------------------|



Then 09340934 minutes later:
(Someone told me to play it like this a long time ago)

------4--4--3--3--1-----|--------4--4--3--3--1-----|--------4--4--3--3--1-----|
---------------------4--|--4--4-----------------4--|--4--4-----------------4--|
------------0--0--------|--------------0--0--------|--------------0--0--------|
------6--6--------3--1--|--------6--6--------3--1--|--------6--6--------3--1--|
------------------------|--6--6--------------------|--6--6--------------------|
------------------------|--------------------------|--------------------------|


wow, just wow.


« Last Edit: January 17, 2005, 04:44:07 pm by imatreeandurnot »

Offline imatreeandurnot

  • Closet Boy
  • Sr. Member
  • ****
  • Posts: 898
  • Karma: 224
  • Gender: Male
  • I'M A BEAUTIFUL MERMAID
    • Poopsex.org
Re: [Guitar] Rock and Roll Part 3
« Reply #2 on: January 17, 2005, 04:45:45 pm »
11. Last Dance

Tab transcribed by Anthony Baumann ( svczc
  • yahoo.com )[/i]



    ==============================================
    ozma guitar tablature: last dance
    as performed on the CD "rock and roll part three."
    ==============================================

    "Last Dance" is played in the key of A Major, in 4/4 time. The guitars and bass are both tuned down one half step, so the song sounds in Ab.

    notation:
    // - slide down or up to the indicated note.


    =INTRO=  (0:00)

    Eb  -------------------------------|-------------------|-------------------|--0-----|
    Bb  -------------------------------|-------------------|-------------------|--0-----|
    Gb  -------------------------------|-------------------|-------------------|--1-----|
    Db  ---------7--6--4---------------|--------7--6--4----|--------5--4--2----|--2-----|
    Ab  -----------------7--(4 times)--|----------------7--|----------------5--|--2-----|
    Eb  ---5--5------------------------|--2--2-------------|--3--3-------------|--0-----|


    =VERSE I=  (0:27)

    Eb -------------------------------|------------------|------------------|--0-------|
    Bb -------------------------------|------------------|------------------|--0-------|
    Gb -------------------------------|------------------|------------------|--1-------|
    Db ---------7--6--4---------------|-------7--6--4----|--------5--4--2---|--2-------|
    Ab -----------------7--(12 times)-|---------------7--|----------------5-|--2-------|
    Eb ---5--5------------------------|--2--2------------|--3--3------------|--0-------|


    =VERSE II=  (0:57)

    Eb ------------------------------|-------------------|------------------|--0-------|
    Bb ------------------------------|-------------------|------------------|--0-------|
    Gb ------------------------------|-------------------|------------------|--1-------|
    Db ---------7--6--4--------------|--------7--6--4----|--------5--4--2---|--2-------|
    Ab -----------------7--(8 times)-|----------------7--|----------------5-|--2-------|
    Eb ---5--5-----------------------|--2--2-------------|--3--3------------|--0-------|


    =CHORUS=  (1:19)

    Eb -----------------------------------------------|
    Bb -----------------------------------------------|
    Gb --7--|--9--|--6--|--7--|--6--|--4--|-----------|
    Db --7--|--9--|--6--|--7--|--6--|--4--|--7--|--7--|
    Ab --5--|--7--|--4--|--5--|--4--|--2--|--7--|--7--|
    Eb --------------------------------------5--|--5--|


    =VERSE III= (1:44)

    Eb ------------------------------------------------------------------------------------------------|
    Bb ------------------------------------------------------------------------------------------------|
    Gb ------------------------------------------------------------------9-9-9-9-9-9-9-9---------------|
    Db --7--|--7--|--7--|--7--|--4-4-4-4-4-4-4-4--|--5-5-5-5-5-5-5-5--|--9-9-9-9-9-9-9-9--(2 times)----|
    Ab --7--|--7--|--7--|--7--|--4-4-4-4-4-4-4-4--|--5-5-5-5-5-5-5-5--|--7-7-7-7-7-7-7-7---------------|
    Eb --5--|--5--|--5--|--5--|--2-2-2-2-2-2-2-2--|--3-3-3-3-3-3-3-3--|--------------------------------|


    =VERSE IV= (1:58)


    Eb -----------------------------|-----------------------------------------------------------------------|
    Bb -----------------------------|-----------------------------------------------------------------------|
    Gb -----------------------------|------------------------------------------9-9-9-9-9-9-9-9--------------|
    Db --------7--6--4--------------|--4-4-4-4-4-4-4-4--|--5-5-5-5-5-5-5-5--|--9-9-9-9-9-9-9-9--------------|
    Ab ----------------7--(8 times)-|--4-4-4-4-4-4-4-4--|--5-5-5-5-5-5-5-5--|--7-7-7-7-7-7-7-7--(2 times)---|
    Eb --5--5-----------------------|--2-2-2-2-2-2-2-2--|--3-3-3-3-3-3-3-3--|-------------------------------|



    =REPEAT CHORUS TWICE= (2:19)



    =BRIDGE= (2:45)


    Eb ------------------------|--------|-------------------------|
    Bb -----//7----//5----//3--|--------|----//7-----//5-----//3--|
    Gb --7------6------4-------|--------|--7------6-------4-------|
    Db --7------6------4-------|--7-----|--7------6-------4-------|
    Ab --5------4------2-------|--7-----|--5------4-------2-------|
    Eb ------------------------|--5-----|-------------------------|



    =DRUM AND KEYBOARD BRIDGE= (2:58)



    =OUTRO= (3:12)   [ ending riff at (3:47) ]

    Eb -------------------------------------|-----------------------------------|
    Bb -------------------------------------|-----------------------------------|
    Gb -------------------------------------|-----------------------------------|
    Db --------7--6--4----------------------|---7-----7--9--8-------------------|
    Ab ----------------7---(play 22 times)--|------7-----------7----------------|
    Eb --5--5-------------------------------|---------------------9--7--5//0----|