December 17, 2017, 03:03:08 am

News:

If you can read this, Samuel is still a ph@gg0t


[Bass] Rock and Roll Part 3

Started by imatreeandurnot, December 21, 2004, 08:40:48 am

previous topic - next topic

0 Members and 1 Guest are viewing this topic.

Go Down

imatreeandurnot

December 21, 2004, 08:40:48 am Last Edit: December 21, 2004, 12:18:45 pm by Not Jason
1. Domino Effect

Tab transcribed by Not Jason

Ozma
Domino Effect
Tabbed by Not Jason

Tuning: 1/2 step down

INTRO

Gb|-----------------------------------------------------------------|
Db|-----------------------------------------------------------------|
Ab|-0-0-0-0-0-0-0-0-2-2-2-2-2-2-2-2---------------------------------|
Eb|---------------------------------0-0-0-0-0-0-0-0-5-5-5-5-4-4-4-4-|

Gb|-------------------------------------------------------------|
Db|-------------------------------------------------------------|
Ab|---------------------------------7-7-7-7-7-7-7-7-------------|
Eb|-2-2-2-2-2-2-2-2-0-0-0-0-0-0-0-7-----------------5-5-5-5-5-0-|

Gb|-----------------------------------------------------------------|
Db|-----------------------------------------------------------------|
Ab|-0-0-0-0-0-0-0-0-2-2-2-2-2-2-2-2-7-7-7-7-7-7-7-7-----------------|
Eb|-------------------------------------------------5-5-7-5-4-4-4-4-|

Gb|-----------------------------------------------------------------|
Db|-----------------------------------------------------------------|
Ab|---------------------------------7-7-7-7-------------------------|
Eb|-2-2-2-2-2-2-2-2-0-0-0-0-7-7-7-7---------7-7-7-7-5-5-5-5-5-5-5-5-|

Gb|-----------------------------------------------------------------|
Db|-----------------------------------------------------------------|
Ab|-5-5-5-5-5-5-5-5-7-7-7-7-7-7-7-7-4-4-4-4-4-4-4-4-9-9-9-9-9-9-9-9-|
Eb|-----------------------------------------------------------------|

Gb|-----------------------------------------------------------------|
Db|-----------------------------------------9-9-7-7-9---------------|
Ab|-5-5-5-5-5-5-5-5-5-5-5-5-5-5-5-5-7-7-7-7-7-7-7-7-7-7-7-7-7-7-7-7-|
Eb|-----------------------------------------------------------------|

Gb|-----------------------------------------------------------------|
Db|-----------------------------------------------------------------|
Ab|-4-4-4-4-4-4-4-4-4-4-4-4-7-7-7-7-9-9-9-9-9-9-9-9-9-9-9-9-7-7-7-7-|
Eb|-----------------------------------------------------------------|

Gb|-----------------------------------|
Db|-----------------------------------|
Ab|-5-5-5-5-4-4-4-4-2-2-2-2-0-0-0-0---|
Eb|---------------------------------0-|

FIRST VERSE

Gb|-----------------------------------------------------------------|
Db|-----------------------------------------------------------------|
Ab|-0-0-0-0-0-0-0-0-2-2-2-2-2-2-2-2---------------------------------|
Eb|---------------------------------0-0-0-0-0-0-0-0-5-5-5-5-4-4-4-4-|

Gb|-------------------------------------------------------------|
Db|---------4-4-4-4---------------------------------------------|
Ab|---------------------------------7-7-7-7---------------------|
Eb|-2-2-2-2---------0-0-0-0-7-7-7-7---------7-7-7-7-5-5-5-5-5-0-|

Gb|-----------------------------------------------------------------|
Db|-----------------------------------------------------------------|
Ab|-0-0-0-0-0-0-0-0-2-2-2-2-2-2-2-2-7-7-7-7-7-5-4-4-----------------|
Eb|-------------------------------------------------5-5-5-5-4-4-4-4-|

Gb|-----------------------------------------------------------------|
Db|-----------------------------------------------------------------|
Ab|---------------------------------7-7-7-7-------------------------|
Eb|-2-2-2-2-2-2-2-2-0-0-0-0-7-7-7-7---------7-7-7-7-5-5-5-5-5-5-5-5-|

Gb|-----------------------------------------------------------------|
Db|-----------------------------------------------------------------|
Ab|-5-5-5-5-5-5-5-5-7-7-7-7-7-7-7-7-4-4-4-4-4-4-4-4-9-9-9-9-9-9-9-9-|
Eb|-----------------------------------------------------------------|

Gb|-----------------------------------------------------------------|
Db|-----------------------------------------------------------------|
Ab|-5-5-5-5-5-5-5-5-5-5-5-5-5-5-5-5-7-7-7-7-7-7-7-7-7-7-7-7-7-7-7-7-|
Eb|-----------------------------------------------------------------|

Gb|-----------------------------------------------------------------|
Db|-----------------------------------------------------------------|
Ab|-4-4-4-4-4-4-4-4-4-4-4-4-7-7-8-8-9-9-9-9-9-9-9-9-9-9-9-9-7-7-7-7-|
Eb|-----------------------------------------------------------------|

Gb|-----------------------------------|
Db|-----------------------------------|
Ab|-5-5-5-5-4-4-4-4-2-2-2-2-0-0-0-0---|
Eb|---------------------------------0-|

INTERLUDE

Gb|-----------------------------------------------------------------|
Db|-----------------------------------------------------------------|
Ab|-0-0-0-0-0-0-0-0-2-2-2-2-2-2-2-2---------------------------------|
Eb|---------------------------------0-0-0-0-0-0-0-0-1-1-1-1-1-1-1-1-|

Gb|-------------|
Db|-------------|
Ab|-------------|
Eb|-1-1-1-1-1-4-|

SECOND VERSE

Gb|-----------------------------------------------------------------|
Db|---------------------------------------9-------------------------|
Ab|-0-0-0-0-0-0-0-0-2-2-2-2-2-2-2-2-7-7-7---7-7-7-7-----------------|
Eb|-------------------------------------------------5-5-5-5-4-4-4-4-|

Gb|-----------------------------------------------------------------|
Db|---------4-4-----------------------------------------------------|
Ab|-----4-4-----4-------------------7-7-7-7-------------------------|
Eb|-2-2-----------2-0-0-0-0-7-7-7-7---------7-7-7-7-5-5-5-5-5-5-5-5-|

Gb|-----------------------------------------------------------------|
Db|-----------------------------------------------------------------|
Ab|-5-5-5-5-5-5-5-5-7-7-7-7-7-7-7-7-4-4-4-4-4-4-4-4-9-9-9-9-9-9-9-9-|
Eb|-----------------------------------------------------------------|

Gb|-------------------------------------------------------------|
Db|-------------------------------------------------------------|
Ab|-5--5--4--2--0--------------------2-----4--2--0--------------|
Eb|----------------4--2--0-----2--4-----------------4--2--1--2--|

Gb|------------------|
Db|------------------|
Ab|-5-5-4-4--2--0----|
Eb|----------------0-|

BRIDGE

Gb|------------------------------------------------------------|
Db|------------------------------------------------------------|
Ab|-5---7---4--5-7-9---7-5--4-2-0-------------2-4--2-0---------|
Eb|-------------------------------4-2-0---2-4----------4-2-1-2-|

Gb|---------------------------|
Db|----------------------7----|
Ab|-------------5--4--2-------|
Eb|-2-4-5-4-2-0-------------0-|

THIRD VERSE/OUTRO

(no bass first time through)

Gb|-----------------------------------------------------------------|
Db|-----------------------------------------------------------------|
Ab|-0-0-0-0-0-0-0-0-2-2-2-2-2-2-2-2-7-7-7-7-7-7-7-7-8-8-8-8-8-8-8-8-|
Eb|-----------------------------------------------------------------|

Gb|-----------------------------------|
Db|-----------------------------------|
Ab|-8-8-8-8-8-10-12----8-8-8-8-8-10-3-|
Eb|-----------------------------------|












2. Apple Trees

Tab transcribed by Not Jason

Ozma
Apple Trees
Tabbed by Not Jason

Tuning: 1/2 step down

INTRO

keyboard (arranged for bass)
Gb|-----------------------------------------------------------------|
Db|-----------------------------------------------------------------|
Ab|-3-3-3-3-3-3-3-3-3-3-3-3-3-3-3-3-3-3-3-3-3-3-3-3-3-3-3-3-3-3-3-3-|
Eb|-----------------------------------------------------------------|

bass
Gb|-----------------------------------------------------------|
Db|-----------------------------------------------------------|
Ab|-3-3-3-3-3-3-3-3-/7-7-7-7-7-7-7-7-/10-10-10-10-10-10-10-12-|
Eb|-----------------------------------------------------------|

Gb|--------------------------|
Db|--------------------------|
Ab|-/14-14-14-14-14-14-14-14-|
Eb|--------------------------|

FIRST VERSE

keyboard
Gb|-----------------------------------------------------------------|
Db|-----------------------------------------------------------------|
Ab|-3-3-3-3-3-3-3-3---------------------------------3-3-3-3-3-3-3-3-|x2
Eb|-----------------4-4-4-4-4-4-4-4-3-3-3-3-3-3-3-3-----------------|

bass
Gb|-----------------------------------------------------------------|
Db|-----------------------------------------------------------------|
Ab|-1515151515151515--------------------------------3-3-3-3-3-3-3-3-|
Eb|-----------------4-4-4-4-4-4-4-4-3-3-3-3-3-3-3-3-----------------|

Gb|-----------------------------------------------------------------|
Db|---------------------5-----5---5---------------------------------|
Ab|-3-3-3-3-3-3-3-3---3-----3-----------------------3-3-3-3-3-3-3-3-|
Eb|-----------------4-----4-----4---3-3-3-3-3-3-3-3-----------------|

bass & keyboard
Gb|-----------------------------------------------------------------|
Db|-----------------------------------------------------------------|
Ab|-0-0-0-0-0-0-0-0---------------------------------3-3-3-3-3-3-3-3-|
Eb|-----------------4-4-4-4-4-4-4-4-3-3-3-3-3-3-3-3-----------------|

Gb|-------------------|
Db|-------------------|
Ab|-0-0-0-0-0-0-0-0---|
Eb|-----------------3-|

bass
Gb|---|
Db|---|
Ab|---|
Eb|-4-|

(about now we stop paying attention to the keyboard, all tab from
hear on is for bass)

FIRST PRECHORUS

Gb|----------------------------------------|
Db|----------------------------------------|
Ab|---------8--8-8----------3-3--3-----3---|
Eb|-5--5-5----------3--3-3---------4-4---4-|

Gb|-------------------------------------------|
Db|-------------------------------------------|
Ab|-------------------------3-3-3-3-7-7-7-7-8-|
Eb|-5--5-5-13--13-13-3--3-3-------------------|

Gb|---|
Db|---|
Ab|---|
Eb|-4-|

FIRST CHORUS

Gb|-------------------------------------------------|
Db|-------------------7-5--5-5-5--0-----------------|
Ab|----------5--5-5-5---------------3-3-3-3-2-2-2-2-|
Eb|-5--5-5-5----------------------------------------|

Gb|----------------------------------------------|
Db|-----------------------5-5--5-5-5-------------|
Ab|-0-0--0-0-0-5-5--5-5-5------------3-3-3-3-3---|
Eb|--------------------------------------------4-|

SECOND VERSE

Gb|-----------------------------------------------------------------|
Db|-----------------------------------------------------0-0-2-2-5-5-|
Ab|-3-3-3-3-3-3-3-3---------------------------------3-3-------------|
Eb|-----------------4-4-4-4-4-4-4-4-3-3-3-3-3-3-3-3-----------------|

Gb|-----------------------------------------------------------------|
Db|---------------------5-----5---5---------------------------------|
Ab|-3-3-3-3-3-3-3-3---3-----3-----------------------3-3-3-3-3-3-3-3-|
Eb|-----------------4-----4-----4---3-3-3-3-3-3-3-3-----------------|

Gb|-----------------------------------------------------------------|
Db|-----------------------------------------------------------------|
Ab|-0---0---0---0-----------------------------------3---3---3---3---|
Eb|-----------------4---4---4---4---3---3---3---3-------------------|

Gb|-------------------|
Db|-------------------|
Ab|-0-0-0-0-0-0-0-0---|
Eb|-----------------3-|

Gb|---|
Db|---|
Ab|---|
Eb|-4-|

SECOND PRECHORUS

Gb|----------------------------------------|
Db|--------------------------------------0-|
Ab|---------8--8-8----------3-3--3-----3---|
Eb|-5--5-5----------3--3-3---------4-4-----|

Gb|-------------------------------------------|
Db|-------------------------------------------|
Ab|-------------------------3-3-3-3-7-7-7-7-8-|
Eb|-5--5-5--1--1-1--3--3-3--------------------|

Gb|--------------|
Db|--------------|
Ab|-8--7-8-10-12-|
Eb|--------------|

SECOND CHORUS

Gb|-------------------------------------------------------|
Db|---------------------------------------------------0-2-|
Ab|-12--12-12-12-5-5--5-5-5--0----------0-3-3-3-3-2-2-----|
Eb|----------------------------3--3-3-3-------------------|

Gb|----------------------------------------------|
Db|----------------------------------------------|
Ab|-0-0--0-0-0-5-5--5-5-5------------3-3-3-3-3---|
Eb|-----------------------3-3--3-3-3-----------4-|

GUITAR SOLO

Gb|-----------------------------------------------------|
Db|-----------------------------------------------------|
Ab|----------------------------------------3--3-----3---|
Eb|-5--5-5-5-5-5-1--1-1-1-1-1-3--3-3-3-3-3------4-4---4-|

Gb|-----------------------------------------------------------|
Db|-----------------------------------------------------------|
Ab|-------------------------------------------3-3-3-3-7-7-7-7-|
Eb|-5--5-5-5-5-5--13-13-13-13-13-13-3-3-3-3-3-----------------|

Gb|---------------------------------------------------------|
Db|---------------------------------------------------------|
Ab|-8-8-8-8-8-8-8-8-10-10-10-10-10-10-10-10-3-3-3-3-3-3-3-0-|
Eb|---------------------------------------------------------|

Gb|-------------------------------------------------|
Db|-------------------------------------------------|
Ab|-7-7-7-7-7-7-5-7-8-8-8-8-8-8-8-8-----------------|
Eb|---------------------------------3-3-3-3-3-3-3-3-|

Gb|-------------------------------|
Db|-------------------------------|
Ab|-3-3-3-------------------------|
Eb|-------4--5-5-5-0--1-1-1-1-1-3-|

THIRD PRECHORUS

Gb|----------------------------------------|
Db|----------------------------------------|
Ab|---------8--8-8----------3-3--3---------|
Eb|-5--5-5----------3--3-3---------4-4-4-4-|

Gb|-------------------------------------------------------|
Db|-----------------------------5-------------------------|
Ab|-----------------------------------0-3-3-3-3-2-2-2-2-0-|
Eb|-5-5-5-5-5-5-1-1-1-1-1-1-3-3---3-3---------------------|

THIRD CHORUS

(bass stops, song gets quiet)

Gb|----------------------------------------------------------------|
Db|-(5)----5-----4-------------------------------------------------|
Ab|----3-3---2-2---0-0-0-0-0-0-0-0-5-5-5-5-5-5-5-5-----------------|
Eb|------------------------------------------------3-3-3-3-3-3-3-3-|

Gb|-----------------|
Db|---------0-0-2-5-|
Ab|-3-3-3-3---------|
Eb|-----------------|

Gb|-------------------------------------------------------|
Db|-------------------------------------------------------|
Ab|-0-0-0-0-0-0-5-5-5-5-5-5-0-----------0-3-3-3-3-2-2-2-2-|
Eb|---------------------------3-3-3-3-3-------------------|

Gb|-----------------------------------------------------------|
Db|-----------------------------------------------------------|
Ab|-0-0-0-0-0-3-5-5-5-5-5-0-----------------3-3-3-3-7-7-7-7-8-|
Eb|-------------------------3-3-3-3-3-3-3-3-------------------|

OUTRO

Gb|-----------------------------------------|
Db|-----------------------------------------|
Ab|-8--7-8-10--12--10-12-14--15--14-15-17-0-|
Eb|-----------------------------------------|












3. Shooting Stars

Tab transcribed by Rieg

Shooting Stars
(You'll have to hear the song to "get" this tab.)
This is my first bass tab, so hush

Intro:
G:---15-13-h15-15-15-13-15-15-Ã,  Ã,  x2

then

G:-----------------------------------------------------
D:-----------------------------------------------------
A:--6-6-----------------------------2-2-2-2------------
E:-------1-1---2-(-2-2-2-2-2-)--------------4-4-4-4----

repeat

G:--------------------------------------------------------
D:-------------------------------------------6-6-6-6-6-6--
A:--6-6-------------------------2-2-2-2-2-2---------------
E:-------1-1---2-(-2-2-2-2-2-)----------------------------


G:-----------------------------------
D:-----------------------------------
A:------4-6-----(4-6-4-6-4-6-4)------
E:-2-2-------------------------------

repeat



Pre-verse Part:

G:--------------------------------------
D:--------------------------------------
A:--6-2---2-2-2-2---4-4-4-4-------------
E:-----------------------------2-2-2-2--

continued:

G:------------------------------------------------------
D:------------------------------------------------------
A:------------------------------------------------------
E:-2-2-2-2-2--1-1-1-1-1-1--2-2-2-2--4-4-4-4--6-6-6-6-6--

continued:

G:----------------------------------------------------------------
D:--------------------------------------------1---3---4-4-4-4-4---
A:4-4-4-4--6-6-6-6--8-8-8-8-8-8--6--4-4-4-4-----------------------
E:----------------------------------------------------------------

Thats it for now. :\











4. Natalie Portman

This tab is missing! Maybe you have it written down somewhere? Neato! Send it to either via email to Joe or Rieg or via Private Message to Jason or Joe or Rieg!
Ofcourse you will be credited and your tab will be posted here unedited!












5. Ups and Downs

This tab is missing! Maybe you have it written down somewhere? Neato! Send it to either via email to Joe or Rieg or via Private Message to Jason or Joe or Rieg!
Ofcourse you will be credited and your tab will be posted here unedited!












6. If I Only Had a Heart

This tab is missing! Maybe you have it written down somewhere? Neato! Send it to either via email to Joe or Rieg or via Private Message to Jason or Joe or Rieg!
Ofcourse you will be credited and your tab will be posted here unedited!

imatreeandurnot

December 21, 2004, 08:41:43 am #1 Last Edit: January 22, 2005, 01:24:56 pm by imatreeandurnot
7. Baseball

Tab transcribed by  Anthony Baumann

===========================================
"Baseball" - by Ozma
Transcribed by Anthony Baumann (svczc(at)yahoo.com)
===========================================
Notations:  ~~~ = sustain the note
            / = slide to the next note
===========================================


INTRO [0:00]

Gb ------------------------------------|
Db ----------------------------9-------|
Ab ------------------------------------|
Eb --0---5---7---5---0---5---7---0~~~--|

Gb -----------------------------------------|
Db -----------------------------------------|
Ab -----------------------------------------|
Eb --0---5---7---5---0---5---3--2--0--5~~~--|



VERSE [0:30]

Gb ---------------------------------------|
Db ---------------------------------------|
Ab --------------4--4--4--4--0--0--0--0---|
Eb --0--0--0--0---------------------------|

Gb ------------------------------------5/6--4---|
Db --------1/2--4-2-1--1/4--2---2----6----------|
Ab --0-2-3-------------------------4------------|
Eb ---------------------------0-----------------|

Gb --------------------------------|
Db --------------------------------|
Ab --0--0--0--0--2-2-2-2-2-2-2-2---|
Eb --------------------------------|


CHORUS [0:56]

Gb ---------------------------------------------------|
Db ---------------------------------------------------|
Ab -4-4-4-4-4-4-4-4-0-0-0-0-0-0-0-0-2-2-2-2-2-2-2-2---|
Eb ---------------------------------------------------|

Gb ---------------------------------------------------|
Db ---------------------------------------------------|
Ab -0-0-0-0-0-0-0-0-4-4-4-4-4-4-4-4-0-0-0-0-0-0-0-0---|
Eb ---------------------------------------------------|

Gb ------------------------------|
Db ------------------------------|
Ab -2-2-2-2-2-2-2-2--------------|
Eb ------------------0~~~-5~~~---|


SECOND INTRO [1:21]

Gb -------------------------------------------|
Db -------------------------------------------|
Ab -------------------------------------------|
Eb -0-0-0-0-5-5-5-5-7-7-7-7-5-5-5-5-0-0-0-0---|

Gb -------------------------|
Db -------------------------|
Ab -------------6/7---------|
Eb -5-5-5-5-7-7------5~~~---|


SECOND VERSE [1:37]

Gb ---------------------------------------------|
Db ---------------------------------------------|
Ab --------------4--4--4--4--0--0--0--0--2~~~---|
Eb --0--0--0--0---------------------------------|

Gb ----------------------------------------------|
Db ----------------------------------------------|
Ab --------------4~~~----------------------------|
Eb --0--0--0--0--------5~~~--3--5-5~~--5--7--5---|

Gb ---------------------|
Db ---------------------|
Ab --------4~~~--0~~~---|
Eb --0~~~---------------|



BRIDGE [2:15]

Gb ------------------------------------|
Db ------------------------------------|
Ab ------------------4-4-4-4-4-4-4-4---|
Eb --0-0-0-0-0-0-0-0-------------------|

Gb ------------------------------------|
Db ------------------------------------|
Ab --0-0-0-0-0-0-0-0-2-2-2-2-2-2-2-2---|
Eb ------------------------------------|


PLAY CHORUS 3 TIMES [2:27]


SECOND BRIDGE [3:19]  (Play 2 times)

Gb ---------------------------------------------------|
Db ---------------------------------------------------|
Ab --------4--4--------------------4--4--2--2---------|
Eb --4--4--------5--5--0--0--2--2--------------5--5---|


GUITAR SOLO (PLAY CHORUS FOR THIS) [3:44]


OUTRO [5:00]

Gb -----------------------------------------|
Db --6--4/6--7--6/7--10-9-7-6-7-6-4-7-6-----|
Ab -------------------------------------7---|
Eb -----------------------------------------|

Gb ------------------------------------------|
Db --4-2-4-7-6------4-2-4-7-6--4/6--7--6/7---|
Ab ------------7-7---------------------------|
Eb ------------------------------------------|

Gb ---------------------------------------------------|
Db --11--9/11--13-11-9-10--9/10/9--7-6-4-6-7-9--------|
Ab --------------------------------------------6~~~---|
Eb ---------------------------------------------------|













8. Rocks

Tab transcribed by Jason the Great
Ozma
Rocks
Tabbed by Jason The Great (DAWgAWD@HoTMaiL.com)

Tuning:  1/2 step down

INTRO
Gb|-----------------------------------------------------------------|
Db|-------------------------------------------------5-5-4-4-2-2-0-0-|
Ab|---------3-3-5-5---------3-3-5-5---------3-3-5-5-----------------|
Eb|-3-3-3-3---------3-3-3-3---------3-3-3-3-------------------------|

Gb|-----------------------------------------------------------------|
Db|-----------------------------------------------------------------|
Ab|---------3-3-5-5---------3-3-5-5---------3-3-5-5-----------------|
Eb|-3-3-3-3---------3-3-3-3---------3-3-3-3---------3-3-2-2-3-3-5-5-|

FIRST VERSE
Gb|-----------------------------------------------------------------|
Db|-----------------------------------------------------------------|
Ab|---------3-3-5-5---------3-3-5-5---------3-3-5-5---------3-3-5-5-|
Eb|-3-3-3-3---------3-3-3-3---------3-3-3-3---------3-3-3-3---------|

Gb|-----------------------------------------------------------------|
Db|-5-5-5-5---------5-5-5-5---------5-5-5-5---------5-5-5-5---------|
Ab|---------3-3-5-5---------3-3-5-5---------3-3-5-5---------3-3-5-5-|
Eb|-----------------------------------------------------------------|

FIRST CHORUS
Gb|--------------------------------------------|
Db|--------------------------------------------|
Ab|------------------3-5-5-5-------------------|
Eb|-0-0-0-0--3-5-5-5---------2-3-3-3-3-2-2-2-2-|

Gb|--------------------------------------------|
Db|--------------------------------------------|
Ab|------------------3-5-5-5-----------3-3-5-5-|
Eb|-0-0-0-0--3-5-5-5---------2-3-3-3-3---------|

SECOND VERSE

Gb|-----------------------------------------------------------------|
Db|-----------------------------------------------------------------|
Ab|---------3-3-5-5---------3-3-5-5---------3-3-5-5---------3-3-5-5-|x2
Eb|-3-3-3-3---------3-3-3-3---------3-3-3-3---------3-3-3-3---------|

SECOND CHORUS
Gb|--------------------------------------------|
Db|--------------------------------------------|
Ab|------------------3-5-5-5-------------------|x2
Eb|-0-0-0-0--3-5-5-5---------2-3-3-3-3-2-2-2-2-|

BRIDGE
Gb|----------------------------------------------------------------|
Db|----------------------------------------------------------------|
Ab|----------------------------------------------------------------|
Eb|-0-0-0-0-0-0-0-0-3-3-3-3-3-3-3-3-5-5-5-5-5-5-5-5---8-0-0-10-0-0-|

Gb|---------------------------------------------------------------------|
Db|---------------------------------------------------------------------|
Ab|---------------------------------------------------------------------|
Eb|-12-12-12/-0-0-0-0-3-3-3-3-3-3-3-3-5-5-5-5-5-5-5-7-7-7-7-10-10-10-10-|

Gb|------------------------------------------|
Db|------------------------------------------|
Ab|------------------3-5-5-5-----------------|
Eb|-12-12-12-3-5-5-5---------2-3-3-3-2-2-2-2-|

Gb|--------------------------------------------|
Db|--------------------------------------------|
Ab|------------------3-5-5-5-------------------|
Eb|-0-0-0-0--3-5-5-5---------2-3-3-3-3-2-2-2-2-|

CHORUS (same as first)

OUTRO VERSE

Gb|-----------------------------------------------------------------|
Db|-------------------------------------------------5-5-4-4-2-2-0-0-|
Ab|---------3-3-5-5---------3-3-5-5---------3-3-5-5-----------------|
Eb|-3-3-3-3---------3-3-3-3---------3-3-3-3-------------------------|

Gb|-----------------------------------------------------------------|
Db|-----------------------------------------------------------------|
Ab|---------3-3-5-5---------3-3-5-5---------3-3-5-5-----------------|
Eb|-3-3-3-3---------3-3-3-3---------3-3-3-3---------3-3-2-2-3-3-5-5-|

Gb|-----------------------------------------------------------------|
Db|-----------------------------------------------------------------|
Ab|---------3-3-5-5---------3-3-5-5---------3-3-5-5---------3-3-5-5-|
Eb|-3-3-3-3---------3-3-3-3---------3-3-3-3---------3-3-3-3---------|

Gb|--------------------------------------------------------------------|
Db|-5-5-5-5---------5-5-5-5---------5-5-5-5----------------------------|
Ab|---------3-3-5-5---------3-3-5-5---------3-3-5-5---------3-3-5-5----|
Eb|-------------------------------------------------3-3-3-3---------3\-|

i'm pretty sure that most if this is correct.  have fun with it.














9. Battlescars

Tab transcribed by d. brummel

=====================================================================
ozma bass tablature: battlescars
as performed on the CD "rock and roll part three."
copyright (c)1999 slegr/brummel.
transcribed by d. brummel
=====================================================================

Tune down 1/2 step
Notation:
b - bend string up to next indicated note.
r - release bend back to next indicated note.
h - hammer onto the next indicated note
x - muted rake across indicated strings
12* - harmonic at the 12th fret



G----------------------------------------------6-7-6--------
D--------------4-5-4---------4-5-7-5-4-----4-7-------9-7----
A----------2-5-------7-5---5-----------7-5---------------9-7
E--2-2-3-3---------------7----------------------------------



=====================================================================
www.ozmaonline.com
=====================================================================


This tab is kinda incomplete! Maybe you have it written down somewhere? Neato! Send it to either via email to Joe or Rieg or via Private Message to Jason or Joe or Rieg!
Ofcourse you will be credited and your tab will be posted here unedited!













10. In Search of 1988

This tab is missing! Maybe you have it written down somewhere? Neato! Send it to either via email to Joe or Rieg or via Private Message to Jason or Joe or Rieg!
Ofcourse you will be credited and your tab will be posted here unedited!













11. Last Dance

Tab transcribed by Anthony Baumann ( svczc
  • yahoo.com )[/i]


    =======================================
    ozma bass tablature: last dance
    as performed on the CD "rock and roll part three."
    =======================================

    "Last Dance" is played in the key of A Major, in 4/4 time. The guitars and bass are both tuned down one half step, so the song sounds in Ab.

    notation:
    // - slide down or up to the indicated note.


    =INTRO=  (0:00)


    Gb -------------------------------|-------------------|-------------------|---------|
    Db ---------7--6--4---------------|--------7--6--4----|--------5--4--2----|---------|
    Ab -----------------7--(4 times)--|----------------7--|----------------5--|---------|
    Eb ---5--5------------------------|--2--2-------------|--3--3-------------|-0-0-0-0-|


    =VERSE I=  (0:27)

    Gb -------------------------------|------------------|------------------|----------|
    Db ---------7--6--4---------------|-------7--6--4----|--------5--4--2---|----------|
    Ab -----------------7--(12 times)-|---------------7--|----------------5-|----------|
    Eb ---5--5------------------------|--2--2------------|--3--3------------|--0-------|


    =VERSE II=  (0:57)

    Gb ------------------------------|-------------------|------------------|----------|
    Db ---------7--6--4--------------|--------7--6--4----|--------5--4--2---|----------|
    Ab -----------------7--(8 times)-|----------------7--|----------------5-|----------|
    Eb ---5--5-----------------------|--2--2-------------|--3--3------------|--0-------|


    =CHORUS=  (1:19)

    Gb -----|-----|-----|-----|-----|-----|---------------------------------|
    Db -----|-----|-----|-----|-----|-----|--------7--6--4------------------|
    Ab --5--|--7--|--4--|--5--|--4--|--2--|----------------5--(8 times)-----|
    Eb --------------------------------------5--5---------------------------|


    =VERSE I=  (1:44)

    Gb -------------------------------|------------------|-----------------|-----------------------------|
    Db ---------7--6--4---------------|------------------|-----------------|-----------------------------|
    Ab -----------------7--(4 times)--|------------------|-----------------|-7-7-7-7-7-7-7-7--(2 times)--|
    Eb ---5--5------------------------|--2-2-2-2-2-2-2-2-|-3-3-3-3-3-3-3-3-|-----------------------------|



    =VERSE IV= (1:58)


    Gb -------------------------------|------------------|-----------------|-----------------------------|
    Db ---------7--6--4---------------|------------------|-----------------|-----------------------------|
    Ab -----------------7--(4 times)--|------------------|-----------------|-7-7-7-7-7-7-7-7--(2 times)--|
    Eb ---5--5------------------------|--2-2-2-2-2-2-2-2-|-3-3-3-3-3-3-3-3-|-----------------------------|



    =REPEAT CHORUS TWICE= (2:19)



    =BRIDGE= (2:45)


    Gb -----------------------------|-----|----------------------------|
    Db -----//12------//11-----//9--|-----|-----//12-----//11-----//9--|
    Ab --5---------4--------2-------|-----|--5--------4--------2-------|
    Eb -----------------------------|--5--|----------------------------|



    =DRUM AND KEYBOARD BRIDGE= (2:58)



    =OUTRO= (3:12)   [ ending riff at (3:47) ]

    Gb -------------------------------------|-----------------------------------|-----|
    Db --------7--6--4----------------------|---7-----7--9--8-------------------|-----|
    Ab ----------------7---(play 22 times)--|------7-----------7----------------|-----|
    Eb --5--5-------------------------------|---------------------9--7--5//0----|--5--|









    Wow, a lot of tabs missing. So send them in!

Go Up