November 23, 2017, 08:33:25 pm

News:

If you can read this, Samuel is still a ph@gg0t


[Guitar] Double Donkey Disc

Started by imatreeandurnot, December 22, 2004, 11:29:21 am

previous topic - next topic

0 Members and 1 Guest are viewing this topic.

Go Down

imatreeandurnot

1. Flight Of Yuri Gagarin

Tab transcribed by Mike K (mikeweezer44[at]netscape.net)

G           Am          Bm           C (bass: C C# D D#)     
Astronauts, Send us up, Once i'm up, i'll beam you shots
   Em           D                 C (bass: C B A B)
As long as you, return me back to you

G           Am                Bm           C (bass: C C# D D#)
Cosmonauts, best you've got, way too far, from the stars
Em           D                 C (bass: C B A B)
Promise to, return me back to you

"dum dum dum" part: E5

Little guitar riff:

e--15-12----15-14-15-14-12-10----12-10-------------------------
B--------12------------------12--------12----------------------
G--------------------------------------------------------------
D--------------------------------------------------------------
A--------------------------------------------------------------
E--------------------------------------------------------------













2. No One Needs To Know

Tab transcribed by Mike K (mikeweezer44[at]netscape.net)

=====================================================================
ozma guitar tablature: No One Needs to Know
as performed on the CD "The Doubble Donkey Disc"
copyright (c) 1999 slegr/galvez/brummel.
transcribed by Mike K (mikeweezer44[at]netscape.net)
=====================================================================

guitars and bass are both tuned down one half step

notation:
b - bend string up to next indicated note.
r - release bend back to next indicated note.
h - hammer onto the next indicated note
x - muted rake across indicated strings
12* - harmonic at the 12th fret

Clean guitar intro(joined by distorted at end of line):

Eb
No one needs to know (one needs to know)...

Chorus:
Bb5                      G5   F5
Know if a lover's being  faithful, one needs to
Bb5                     G5  F5
Know if a lover's being true, one needs to know
Bb5                     G5  F5
Know if a lover's being faithful, and
Eb5       F5
I'm being faithful, to you.

Verse 1:
(Bass transcribed for guitar)
e---------------------------------------------
B---------------------------------------------
G---------------------------------------------
D---------------------------------------------
A----55---5--5---5---55---5---5---5-----------
E--3----5---6--2---3----5---6---2-------------
Play four times, gradually speeding before vocals enter

I don't know what you're thinking we should do
I don't know if the words you say are true
But let me tell you this tonight
The things we're doing just ain't right
And no one needs to know but me and you

Enter very lightly distorted guitar:
Eb5
No one needs to know
Eb5
No one needs to know
Eb5
No one needs to know (one needs to know)

Repeat Chorus

Verse 2:
Same bass part as verse one, except for the first two lines, where the bass is just:
e---------------------------------------------
B---------------------------------------------
G---------------------------------------------
D---------------------------------------------
A---------------------------------------------
E--3----5---6--2---3----5---6---2-------------

Repeat Chorus 1
Solo(combining keyboard and guitar parts into a lead guitar part):

(underlying chords are G Bb C D)
e---------------------------------------------------------------
B-11----10-11-10-------11----10-11-10-11-13-11-10-11-10---------
G----12----------12-------12----------------------------12------
D-------------------12------------------------------------------
A---------------------------------------------------------------
E---------------------------------------------------------------

e----------------------------------------------------------11-13
B-11----10-11-10-------11----10-11-10-11-13-11-13-15-13-15------
G----12----------12-------12------------------------------------
D-------------------12------------------------------------------
A---------------------------------------------------------------
E---------------------------------------------------------------

e--18-15-17-18-17-15-----18-15-17-18-17-18-20-18-17-18-17-15----
B--------------------15~----------------------------------------
G---------------------------------------------------------------
D---------------------------------------------------------------
A---------------------------------------------------------------
E---------------------------------------------------------------

e------------------------------------11--------------11---------
B--12h13p12h13p12h13p12h13p12--13b15-----13b14-13b15----13-11---
G-------------------------------------------------------------12
D---------------------------------------------------------------
A---------------------------------------------------------------
E---------------------------------------------------------------

Eb5                           G5 A5 Bb5 F#5 G5 A5 Bb5 F#5
No          one needs to know
No          one needs to know
No          one needs to know
Eb5
No one needs to know (one needs to know)

Repeat Chorus
Play verse bass part four times, end on

e-5--------
B-3--------
G-3--------
D-5--------
A----------
E----------

=====================================================================
www.ozmaonline.com
=====================================================================













3. Korobeiniki Version 1

Tab transcribed by Greg K. (shredded77[at]home.com)

KOROBEINIKI (Trad. Russian Folk Song)
Arranged by: Ozma
Tabbed by: Greg K. (shredded77[at]home.com)

I actually tabbed this an octave higher than it is performed but it sounds in tune with the CD so worry not.

Guitars tuned down one half step to Eb.

INTRO (play chords as octaves)

C D Eb E E F F# G#
e-12------------------12-----------12-17-16------------------
b---13-15-12-13--12-----13-15-12-13--------------------------
g--------------14--------------------------------------------
d------------------------------------------------------------
a------------------------------------------------------------
e------------------------------------------------------------

VERSE (play chords as power chords)

E A E A
e-12---------------------12--------------12------------------
b---12-13-15-13-12-----13--15-13-12-13-15--13----------------
g-----------------14-14----------------------14-14-----------
d------------------------------------------------------------
a------------------------------------------------------------
e------------------------------------------------------------
D A E A
e---13-17-15-13-12--12--------------12-----------------------
b-15--------------13--15-13-12-13-15--13---------------------
g---------------------------------------14-14----------------
d------------------------------------------------------------
a------------------------------------------------------------
e------------------------------------------------------------

OUTRO (massive triple pickslide, then

e-12-------17-13---------------------------------------------
b---13----------15-15-13-15-12-----13------------------------
g-----14-14-------------------14-13--14-14\------------------
d------------------------------------------------------------
a------------------------------------------------------------
e------------------------------------------------------------

(The outro is doubled with octaves)












3. Korobeiniki Version 2

Tab transcribed by Mike K. (mikeweezer44[at]netscape.net)

Mike K (mikeweezer44[at]netscape.net)
ozma
Korobeiniki


INTRO:

------------------------------------------------------------------------------
------------------------------------------------------------------------------
---8--8--8--8--------------6--6--6--6-----------------------------------------
---------------9--9--9--9--------------8--8--8--8--9--9--9--9--6--6--6--6--8--
------------------------------------------------------------------------------
------------------------------------------------------------------------------


------------------------------------------------------------------------------
---------------------------------------------------------9--8-----------------
---8--8--8--8--------------6--6--6--6-----------------8-----------------------
---------------9--9--9--9--------------8--8--8--8--9--------------------------
------------------------------------------------------------------------------
------------------------------------------------------------------------------
CHORUS:

------------------------------------------------------------------------------
------------------------------------------------------------------------------
--8--------6-----------------8--6--------------6--8---------------------------
-----8--9-----9--8--6--6--9--------9--8--8--9--------9--6--6------------------
------------------------------------------------------------------------------
------------------------------------------------------------------------------


------------------------------------------------------------------------------
---------9--7-----------------------------------------------------------------
---6--9--------9--8-----8--6--------------6--8--------------------------------
---------------------9--------9--8--8--9--------9--6--6-----------------------
------------------------------------------------------------------------------
------------------------------------------------------------------------------
VERSE:

------------------------------------------------------------------------------
------------------------------------------------------------------------------
---8-----------6--------------------------------------------------------------
---------9-----------8-----9-----6--------------------------------------------
---------------------------------------6--------------------------------------
------------------------------------------------------------------------------


------------------------------------------------------------------------------
---------------------------9--8-----------------------------------------------
---8-----------6-----------------8--6-----------------------------------------
---------9-----------8-----------------9--8--6--------------------------------
------------------------------------------------9--10-------------------------
------------------------------------------------------------------------------
BRIDGE:

------------------------------------------------------------------------------
------------------------------------------------------------------------------
---\6--6----------------------------------------------------------------------
----------9--6-----------9--8--6--5-----6-------------------------------------
----------------9--8--9--------------6-----9--6-------------------------------
------------------------------------------------------------------------------


------------------------------------------------------------------------------
------------------------------------------------------------------------------
------------------------------------------------------------------------------
---8--6--5--9--8--6--5-----6--------------------------------------------------
------------------------6-----9--6--------------------------------------------
------------------------------------------------------------------------------


------------------------------------------------------------------------------
------------------------------------------------------------------------------
---8--8--8--8--------------6--6--6--6-----------------------------------------
---------------9--9--9--9--------------8--8--8--8--9--9--9--9--6--6--6--6--8--
------------------------------------------------------------------------------
------------------------------------------------------------------------------


------------------------------------------------------------------------------
---------------------------------------------------------9--8-----------------
---8--8--8--8--------------6--6--6--6-----------------8-----------------------
---------------9--9--9--9--------------8--8--8--8--9--------------------------
------------------------------------------------------------------------------
------------------------------------------------------------------------------
  OUTRO:

------------------------------------------------------------------------------
------------------------------------------------------------------------------
---8--------6-----------------------8-----8--10-------------------------------
------8--9-----9--8--6--------6--9--------------------------------------------
---------------------------6--------------------------------------------------
------------------------------------------------------------------------------


------------------------------------------------------------------------------
---------------9--------------------------------------------------------------
---8--------------9--6--6-----6-----------------------------------------------
------9--6--6--------------9-----8--6--5--8--6--6-----------------------------
------------------------------------------------------------------------------
------------------------------------------------------------------------------












4. You Know The Story

Tab transcribed by Mike K (mikeweezer44[at]netscape.net)

Mike K (mikeweezer44[at]netscape.net)
YOU KNOW THE STORY
Intro:
A)
e-10---------------------------9-------------------------------
B---10---9-9h10p9----9--10--12---------------------------------
G-----11----------11-------------------------------------------
D--------------------------------------------------------------
A--------------------------------------------------------------
E--------------------------------------------------------------
B)
e--------------------------------------------------------------
B-12~----------------------------------------------------------
G------12-------------14-12-11~--------------------------------
D--------14--12-11-14------------------------------------------
A--------------------------------------------------------------
E--------------------------------------------------------------

Repeat A

C)
e--------------------------------------------------------------
B-12~-----------------------11-9h11-9s7---7-9-11---------------
G------12-------------14-12------------------------------------
D--------14--12-11-14------------------------------------------
A--------------------------------------------------------------
E--------------------------------------------------------------

This next riff is doubled in octaves by keyboard and guitar...
i've included the riff in both octaves
e--------------------------------------------------------------
B--------------------------------------------------------------
G--7---7-8---8-9----------------------------(repeat)-----------
D----9-----9-----10------------12-10-9-------------------------
A-------------------12-10-9-12---------------------------------
E--------------------------------------------------------------

e--10---10-11----11-12-----------------------------------------
B-----12------12-------13-------------15-13-12--(repeat)-------
G-------------------------14-12-11-14--------------------------
D--------------------------------------------------------------
A--------------------------------------------------------------
E--------------------------------------------------------------

G5             B5                    C5           D5
Check her out, she's got looks, i've only seen in storybooks
G5            B5               C5            Eb5
Had one once, read it through, now it's long overdue

Break: E
G5                 B5                  C5            D5
Asked her out, she gave me looks, i've only seen, on mean old crooks
G5             B5                 C5                     Eb5
Had my chance, now we're through, it's been so long, i'm overdue

E5                    F5               E5                D5
What's so wrong, with me and you? It's been so long, i'm overdue
    C5
I'm overdue, return me back to you

Chorus:
G5           C5    D5            C5
You know the story, you know the story
G5           C5    D5            C5
You know the story, you know the story

Instrumental Part:

Rhythm guitar plays an E5, while lead plays a Korobeiniki riff:
e----10--------------------------------------------------------
B--12---------10-------88--------------------------------------
G------12--11--------9-----------------------------------------
D----------------12--------------------------------------------
A--------------------------------------------------------------
E--------------------------------------------------------------
repeat, and then play the vocal line from the "astronauts" segment:

(two guitars tabbed for one, with rhythm chords on top)
  G5               A5            B5           C5 C#5 D5 D#5
e-10-9-10----------8-7-8---------7-6-7--------5-4-5------------
B---------12-11-12-------10-9-10-------8-7-8--------7-6-7------
G--------------------------------------------------------------
D--------------------------------------------------------------
A--------------------------------------------------------------
E--------------------------------------------------------------
  E5          B5           C5
e-3-2-3--------2-0-2-------0-----------------------------------
B-------5-4-5--------4-2-4-------------------------------------
G--------------------------------------------------------------
D--------------------------------------------------------------
A--------------------------------------------------------------
E--------------------------------------------------------------

G5                      A5
Astronauts (Cosmonauts) Send us up (Best you've got)
B5                              C5 (quickly: C#5 D5 D#5)
Once i'm out (way too far) I'll beam you shots (from the stars)
E5                          B5                C5  (quickly: C5 B5 A5 B5)
As long as you (promise to) Return me back to you

G5           C5    D5            C5
You know the story, you know the story

End with the rhythm guitar playing an E5 and a lead playing the riff from korobeiniki played earlier.
This segues into....



imatreeandurnot

December 22, 2004, 11:36:14 am #1 Last Edit: December 29, 2004, 04:45:40 pm by Not Jason
5. Landing Of Yuri Gagarin

Tab transcribed by Mike K (mikeweezer44[at]netscape.net)

Mike K (mikeweezer44[at]netscape.net)
THE LANDING OF YURI GAGARIN
Intro: E5 B5 C5 D5 G5
e--------------------------------------------------------------
B-12-10----10-12-----------------------------------------------
G-------12-------11~--9-8---9~-11--9---------------------------
D------------------------------------12-10-9-------------------
A--------------------------------------------------------------
E--------------------------------------------------------------
Repeat several times, adding some hammer-on's and pull-off's to add some variety



e--------------------------------------------------------------
B-12-10----10-12-----------------------------------------------
G-------12-------11~--9-8---9~-11--9---------------------------
D------------------------------------12-10-9-------------------
A--------------------------------------------------------------
E--------------------------------------------------------------

e-12-14-15-14-12-10--12-10-------------------------------------
B--------------------------10----------------------------------
G--------------------------------------------------------------
D--------------------------------------------------------------
A--------------------------------------------------------------
E--------------------------------------------------------------

e--------------------------------------------------------------
B-12----12-10--12-10-------------------------------------------
G---12---------------12-11-------------------------------------
D-----14-------------------------------------------------------
A--------------------------------------------------------------
E--------------------------------------------------------------














6. Business of Getting Down

This tab is missing! Maybe you have it written down somewhere? Neato! Send it to either via email to Joe or Rieg or via Private Message to Jason or Joe or Rieg!
Ofcourse you will be credited and your tab will be posted here unedited!










7. Maybe In An Alternate Dimension Intro

Tab transcribed by Minorthreat

maybe in an alternate dimension intro solo

-6-x-6-x-6s8~---------8---------------8--------------------------------12s13-
-6-x-6-x-6s8~---8------8-11s13~---8-----11p8---------------------------------
----------------10b---------------10b----------11-10-8-10s12---------12------
-------------------------------------------------------------13(s)14---------
-----------------------------------------------------------------------------
-----------------------------------------------------------------------------

---------------------------------------------------10-8-8~---------------
--16p15p13-15b-13-13~--11p10-8-11s13----11---10b---10-8-8~---------------
-------------------------------------12~-----10br--10-8-8(h9)------------
-----------------------------------------------------------------10p8----
-------------------------------------------------------------------------
-------------------------------------------------------------------------

---------8~-----
-(11)r10-8~--------
-(11)r10-8~--------
-------------------
-------------------
-------------------





7. Maybe In An Alternate Dimension

Tab transcribed by Mike K (dontloveanyone[at]netscape.net)

=====================================================================
ozma guitar tablature: maybe in an alternate dimension
as performed on the CD "the doubble donkey disc"
copyright (c)2001transcribed by mike k. (dontloveanyone[at]netscape.net)
=====================================================================
"maybe in an alternate dimension" is played in the key of C in 4/4 time.
guitars and bass are both tuned down one half step, so the song sounds in B.
notation:
b - bend string up to next indicated note.
r - release bend back to next indicated note.
h - hammer onto the next indicated notex
- muted rake across indicated
strings12* - harmonic at the 12th fretdistored guitar

intro:
e-----------------------------------------------------
B-----------------------------------------------------
G--10-10-x--------9-10-x----9-------------------------
D--10-10-x-9-10-x-9-10-x-10-9-------------------------
A--8--8--x-9-10-x-7-8--x-10-7-------------------------
E----------7-8--x--------8----------------------------

Play twice before keyboard enters
e------------------------------------12---------------
B--13-12--------------------13-12-------12------------
G--------12-----------------------12------------------
D-----------14-12----12-14----------------------------
A-----------------15----------------------------------
E-----------------------------------------------------

Then:
e-------------------------------------10-12-----------
B--13-12------------------------13-12-----------------
G--------12-------------------14----------------------
D-----------14-12----12-14----------------------------
A-----------------15----------------------------------
E-----------------------------------------------------


Verse Bass Line:
e-----------------------------------------------------
B-----------------------------------------------------
G-----------------------------------------------------
D-----------------------[0----------------------------
A--3-3-3----3--------------0-2-3]---------------------
E---------3---3--1-1-1-1------------------------------
Ã,  Ã,  Ã,  Ã,  Ã,  Ã,  Ã,  Ã,  Ã,  Ã,  Ã,  Ã,  only played sometimes
Verse 1:
deep in the hills there is a hideaway
Ã,  Ã,  Ã,  Ã,  Ã,  Ã,  Ã,  Ã,  Ã,  F5(let ring)
that i built with zack, the lego maniac
Ã,  Ã,  A5Ã,  Ã,  Ã,  Ã,  Ã,  Ã,  Ã,  Ã, D5
i'm never ever gonna turn back

Chorus:
Ã,  Ã,  Ã,  Ã,  Ã, F5Ã,  G5Ã,  Ã,  Ã,  Ã,  Ã,  C5
maybe in legoland you're mine
Ã,  Ã,  Ã,  Ã,  Ã,  Ã, F5Ã,  Ã,  Ã,  Ã,  Ã,  G5Ã,  Ã,  Ã,  C5
stop pause record fast-forward rewind
Ã,  Ã,  Ã,  Ã,  F5Ã,  Ã,  Ã,  Ã,  G5
to the beginning frame
Ã,  Ã,  Ã,  Ã,  A5Ã,  Ã, E5Ã,  Ã,  F5
when i heard your name


e-------------------------------
B-------------------------------
G-----10-10-9-9-7---------------
D-55--x--x--x-x-x---------------
A-55--8--8--7-7-5---------------
E-33----------------------------

Guitar riff to accompany bass:
e-----------------------------------------------------
B--13-13-13----13-------15-13-------------------------
G-----------12----12-14-------------------------------
D-----------------------------------------------------
A-----------------------------------------------------
E-----------------------------------------------------


Verse Two:
(as in Verse 1)
we've tunneled through
to the outside world
the front guard is link, the zelda warrior
i'm never ever gonna turn home


Repeat Chorus
Verse Chords for First Half of Solo then A5 to D5 for rest of solo
Repeat Intro













8. Immigration Song

Tab transcribed by OMGWTFBBQ

Immigration Song
Ozma
The Doubble Donkey Disc

Tune Guitars 1/2 step down

INTRO
Ã,  Guitar 1 (doubled by keyboard w/delay)
e|----------------------7-|
B|-8--7-----8--7-----10---|
G|-------7--------7-------| 12x
D|------------------------|
A|------------------------|
E|------------------------|
Ã,  Ã, 1Ã,  +Ã,  2Ã,  +Ã,  3Ã,  +Ã,  4Ã,  +

Guitar 2 (after 4 measure rest)
e|---------10-------------|----10-------------10---|
B|-10-12----------10-10-12|-12-------10-12---------|
G|------------------------|------------------------| 4x
D|------------------------|------------------------|
A|------------------------|------------------------|
E|------------------------|------------------------|
Ã,  Ã, 1Ã,  +Ã,  2Ã,  +Ã,  3Ã,  +Ã,  4Ã,  +Ã,  Ã, 1Ã,  +Ã,  2Ã,  +Ã,  3Ã,  +Ã,  4Ã,  +
Ã,  Ã, CÃ,  Ã,  Ã,  Ã,  Ã,  Ã,  Ã,  Ã,  Ã, DÃ,  Ã,  Ã,  BÃ,  Ã,  Ã,  Ã,  Ã,  Ã, AÃ,  Ã,  Ã,  Ã,  Ã,  Ã, <--- bass

VERSE 1
Guitar 1
Ã,  Ã, Cmaj7Ã,  Ã,  Ã,  Ã,  Ã,  Ã,  Ã,  Ã,  Ã,  Ã,  BÃ,  Ã,  Ã,  Ã,  Asus
e|------------------------|------------------------|
B|-0----------------------|-0--------0--0--------0-|
G|-0----------------------|-0--------0--0--------0-| 4x
D|-2----------------------|-0--------0--2--------2-|
A|-3----------------/5----|-2--------2--0--------0-|
E|------------------------|------------------------|
Ã,  Ã, 1Ã,  +Ã,  2Ã,  +Ã,  3Ã,  +Ã,  4Ã,  +Ã,  Ã, 1Ã,  +Ã,  2Ã,  +Ã,  3Ã,  +Ã,  4Ã,  +

so it ends
round and round the propellor spins
seat backs up no tray tables down
no turning back to this country town

VERSE SECTION 2
Guitar 1 continues chords
Keyboard plays intro riff 8x
Guitar 2 (w/ delay)
e|-12--------------|10--------------|----------------|----------------|
B|------10-------12|----------------|12--------------|----12----------|
G|-----------------|---12-----------|----9---------9-|9/11------------| 2x
D|-----------------|----------------|----------------|----------------|
A|-----------------|----------------|----------------|----------------|
e|-----------------|----------------|----------------|----------------|
Ã,  Ã, 1 + 2 + 3 + 4 +Ã,  1 + 2 + 3 + 4 +Ã,  1 + 2 + 3 + 4 +Ã,  1 + 2 + 3 + 4 +

CHORUS
Guitar 1
Ã,  Ã, Gmaj7
e|-----------------|----------------|----------------|----------------|
B|-0-----------0---|0-----------0---|0-----------0---|0-----------0---|
G|-0-----------0---|0-----------0---|0-----------0---|0-----------0---| 2x
D|-4-----------4---|2-----------2---|4-----------4---|2-----------2---|
A|-2-----------2---|2-----------2---|2-----------2---|2-----------2---|
E|-3-----------3---|0-----------0---|3-----------3---|0-----------0---|
Ã,  Ã, 1 + 2 + 3 + 4 +Ã,  1 + 2 + 3 + 4 +Ã,  1 + 2 + 3 + 4 +Ã,  1 + 2 + 3 + 4 +

Guitar 2
e|------------------------|Ã,  Ã,  Ã,  |-10xx-10-x--10-1010-x10-|
B|-10xx-10-x--10-1010-x10-|Ã,  Ã,  Ã,  |------------------------|
G|------------------------| 4xÃ,  Ã, |-7-xx-7--x--7--7-7--x7--| 4x
D|-7-xx-7--x--7--7-7--x7--|Ã,  Ã,  Ã,  |------------------------|
A|------------------------|Ã,  Ã,  Ã,  |------------------------|
E|------------------------|Ã,  Ã,  Ã,  |------------------------|

i already knew blue eyed girl
would be halfway around the world
i already knew blue eyed girl
would be halfway around the world

INSTRUMENTAL SECTION 1
Guitars 1 and 2 (w/ dist.)
e|------------------------|------------------------|------------------------|
B|------------------------|------------------------|------------------------|
G|------------------------|------------------------|------------------------|
D|----5--5--5--5p4h5/7----|----7--7--7--7p5h7/9----|----5--5--5--5p4h5/7----|
A|------------------------|------------------------|------------------------|
E|------------------------|------------------------|------------------------|
Ã,  Ã, 1Ã,  +Ã,  2Ã,  +Ã,  3Ã,  +Ã,  4Ã,  +Ã,  Ã, 1Ã,  +Ã,  2Ã,  +Ã,  3Ã,  +Ã,  4Ã,  +Ã,  Ã, 1Ã,  +Ã,  2Ã,  +Ã,  3Ã,  +Ã,  4Ã,  +

Ã,  Guitar 1
e|------------------------|
B|------------------------|
G|-------------4--------4-|
D|-5--4-----7-----4--7----|
A|-------5----------------|
E|------------------------|
| 1Ã,  +Ã,  2Ã,  +Ã,  3Ã,  +Ã,  4Ã,  + |
|Guitar 2Ã,  Ã,  Ã,  Ã,  Ã,  Ã,  Ã,  Ã,  |
e|------------------------|
e|-------------5--------5-|
e|-4--------7-----4--7----|
e|----7--4----------------|
e|------------------------|
e|------------------------|
Ã,  Ã, 1Ã,  +Ã,  2Ã,  +Ã,  3Ã,  +Ã,  4Ã,  +


Ã,  Guitar 1
e|------------------------|------------------------|------------------------|
B|------------------------|------------------------|------------------------|
G|------------------------|------------------------|------------------------|
D|----5--5--5--5p4h5/7----|----7--7--7--7p5h7/9----|----5--5--5--5p4h5/7----|
A|------------------------|------------------------|------------------------|
E|------------------------|------------------------|------------------------|
| 1Ã,  +Ã,  2Ã,  +Ã,  3Ã,  +Ã,  4Ã,  + | 1Ã,  +Ã,  2Ã,  +Ã,  3Ã,  +Ã,  4Ã,  + | 1Ã,  +Ã,  2Ã,  +Ã,  3Ã,  +Ã,  4Ã,  + |
|Guitar 2Ã,  Ã,  Ã,  Ã,  Ã,  Ã,  Ã,  Ã,  |Ã,  Ã,  Ã,  Ã,  Ã,  Ã,  Ã,  Ã,  Ã,  Ã,  Ã,  Ã,  |Ã,  Ã,  Ã,  Ã,  Ã,  Ã,  Ã,  Ã,  Ã,  Ã,  Ã,  Ã,  |
e|------------------------|------------------------|------------------------|
B|------------------------|------------------------|------------------------|
G|------------------------|--------------------7---|----4--4--4--4p2h4/5----|
D|----5--5--5--5p4h5/7----|----7--7--7--7p5h7------|------------------------|
A|------------------------|------------------------|------------------------|
E|------------------------|------------------------|------------------------|
Ã,  Ã, 1Ã,  +Ã,  2Ã,  +Ã,  3Ã,  +Ã,  4Ã,  +Ã,  Ã, 1Ã,  +Ã,  2Ã,  +Ã,  3Ã,  +Ã,  4Ã,  +Ã,  Ã, 1Ã,  +Ã,  2Ã,  +Ã,  3Ã,  +Ã,  4Ã,  +

Ã,  Guitar 1
e|------------------------|
B|------------------------|
G|-------------4--------4-|
D|-5--4-----7-----4--7----|
A|-------5----------------|
E|------------------------|
| 1Ã,  +Ã,  2Ã,  +Ã,  3Ã,  +Ã,  4Ã,  + |
|Guitar 2Ã,  Ã,  Ã,  Ã,  Ã,  Ã,  Ã,  Ã,  |
e|------------------------|
e|-------------5--------5-|
e|-4--------7-----4--7----|
e|----7--4----------------|
e|------------------------|
e|------------------------|
Ã,  Ã, 1Ã,  +Ã,  2Ã,  +Ã,  3Ã,  +Ã,  4Ã,  +

INTERLUDE/VERSE 2
Guitar 1 plays verse chords

break it down for a brother
tell me now where weââ,¬â,,¢re bound
i cant wait for another
another way to get down

air gets thin
round and round the propellor spins
round and round on this carousel
round and round feeling not as well

CHORUS

VERSE SECTION 2

INSTRUMENTAL SECTION 2
Ã,  Guitars 1 and 2
Ã,  G
e|-----------------|----------------|
B|----------------/|8---8---8-7---0-|
G|-----------------|--7---7-------0-|
D|-5-5-5-5-5-5-5-5-|--------------0-|
A|-5-5-5-5-5-5-5-5-|--------------0-|
E|-3-3-3-3-3-3-3-3-|----------------|
Ã,  Ã, 1 + 2 + 3 + 4 +Ã,  1 + 2 + 3 + 4 +Ã, 

Guitar 1
e|------------------------|--------------------------|
B|------------------------|-8------------------------|
G|------------------------|-7------------------------|
D|-5--5--5--5--5--5--5--5-|--------------------------|
A|-5--5--5--5--5--5--5--5-|--------------------------|
E|-3--3--3--3--3--3--3--3-|--------------------------|
| 1Ã,  +Ã,  2Ã,  +Ã,  3Ã,  +Ã,  4Ã,  + | 1Ã,  +Ã,  Ã,  Ã, 2Ã,  +Ã,  3Ã,  +Ã,  4Ã,  +
|Guitar 2Ã,  Ã,  Ã,  Ã,  Ã,  Ã,  Ã,  Ã,  |Ã,  Ã,  Ã,  Ã,  Ã,  Ã,  Ã,  Ã,  Ã,  Ã,  Ã,  Ã, 
e|------------------------|--------------------------|
B|------------------------|--------------------------|
G|------------------------|--------------------------|
D|-7-bend to--10----------|-9--7h9p7----7--9-/12-----|
A|------------------------|----------10--------------|
E|------------------------|--------------------------|Ã,  Ã, 
Ã,  Ã, 1Ã,  +Ã,  2Ã,  +Ã,  3Ã,  +Ã,  4Ã,  +Ã,  Ã, 1Ã,  +Ã,  Ã,  Ã, 2Ã,  +Ã,  3Ã,  +Ã,  4Ã,  +

Guitar 1
e|------------------------|------------------------|------------------------|
B|------------------------|-8-----8-----8--7-------|------------------------|
G|------------------------|----7-----7-------------|------------------------|
D|-5--5--5--5--5--5--5--5-|------------------------|-5--5--5--5--5--5--5--5-|
A|-5--5--5--5--5--5--5--5-|------------------------|-5--5--5--5--5--5--5--5-|
E|-3--3--3--3--3--3--3--3-|------------------------|-3--3--3--3--3--3--3--3-|
| 1Ã,  +Ã,  2Ã,  +Ã,  3Ã,  +Ã,  4Ã,  + | 1Ã,  +Ã,  2Ã,  +Ã,  3Ã,  +Ã,  4Ã,  + | 1Ã,  +Ã,  2Ã,  +Ã,  3Ã,  +Ã,  4Ã,  + |
|Guitar 2Ã,  Ã,  Ã,  Ã,  Ã,  Ã,  Ã,  Ã,  |Ã,  Ã,  Ã,  Ã,  Ã,  Ã,  Ã,  Ã,  Ã,  Ã,  Ã,  Ã,  |Ã,  Ã,  Ã,  Ã,  Ã,  Ã,  Ã,  Ã,  Ã,  Ã,  Ã,  Ã,  |
e|------------------------|-15----15----15-14------|------------------------|
B|------------------------|----15----15------------|------------------------|
G|------------------------|------------------------|------------------------|
D|9h12p9------------------|------------------------|-5--5--5--5--5--5--5--5-|
A|------------------------|------------------------|-5--5--5--5--5--5--5--5-|
E|------------------------|------------------------|-3--3--3--3--3--3--3--3-|
Ã,  Ã, 1Ã,  +Ã,  2Ã,  +Ã,  3Ã,  +Ã,  4Ã,  +Ã,  Ã, 1Ã,  +Ã,  2Ã,  +Ã,  3Ã,  +Ã,  4Ã,  +Ã,  Ã, 1Ã,  +Ã,  2Ã,  +Ã,  3Ã,  +Ã,  4Ã,  +

Ã,  Guitar 1 (guitar 2 tacet)
e|---------------------------------|
B|---------------------------------|
G|---------------------4h7-7b9b7---|
D|-5-------5-------5h7-------------|
A|-----5-------5-------------------|
E|---------------------------------|
Ã,  Ã, 1Ã,  Ã, +Ã,  Ã, 2Ã,  Ã, +Ã,  Ã, 3Ã,  Ã, +Ã,  Ã, 4Ã,  Ã, +

ENDING SECTION
Guitars 1 and 2
e|-----------------|----------------|
B|-----------------|----------------|
G|-5-5-5-5-5-5-7-7-|4-4-4-4-2-2-2-2-| 4x
D|-5-5-5-5-5-5-7-7-|4-4-4-4-2-2-2-2-|
A|-3-3-3-3-3-3-5-5-|2-2-2-2-0-0-0-0-|
E|-----------------|----------------|
Ã,  Ã, 1 + 2 + 3 + 4 +Ã,  1 + 2 + 3 + 4 +Ã, 

Guitar 1 plays progression 4 more times
Guitar 2:
e|-----------------|----------------|Ã,  Ã,  |-----------------|----------------|
B|-8-8-8-8-8-8-1010|-8-8-8-8-8-8-8-8|Ã,  Ã,  |-1212121212121312|13128-8-8-8-8-8-|Ã, 
G|-----------------|----------------|2xÃ,  |-----------------|----------------|
D|-5-5-5-5-5-5-7-7-|5-5-5-5-5-5-5-5-|Ã,  Ã,  |-9-9-9-9-9-9-109-|109-5-5-5-5-5-5-|
A|-----------------|----------------|Ã,  Ã,  |-----------------|----------------|
E|-----------------|----------------|Ã,  Ã,  |-----------------|----------------|
Ã,  Ã, 1 + 2 + 3 + 4 +Ã,  1 + 2 + 3 + 4 +Ã,  Ã,  Ã,  Ã,  1 + 2 + 3 + 4 +Ã,  1 + 2 + 3 + 4 +

e|-----------------|----------------|
B|-8-8-8-8-8-8-8-8-|8-8-8-8-8-8-8-8-|
G|-----------------|----------------|
D|-5-5-5-5-5-5-5-5-|5-5-5-5-5-5-5-5-|
A|-----------------|----------------|
E|-----------------|----------------|

Both Guitars
e|-----------------|----------------|----------------|----------------|
B|-----------------|----------------|----------------|----------------|
G|-5-----------7---|4-------2-------|5-----------7---|4-------2-------|
D|-5-----------7---|4-------2-------|5-----------7---|4-------2-------|
A|-3-----------5---|2-------0-------|3-----------5---|2-------0-------|
E|-----------------|----------------|----------------|----------------|
Ã,  Ã, 1 + 2 + 3 + 4 +Ã,  1 + 2 + 3 + 4 +Ã,  1 + 2 + 3 + 4 +Ã,  1 + 2 + 3 + 4 +

End on A5


imatreeandurnot

December 22, 2004, 11:36:33 am #2 Last Edit: December 22, 2005, 05:52:28 pm by imatreeandurnot
9. Flight Of The Bootymaster

Tab transcribed by OMGWTFBBQ

Flight of the Bootymaster
Ozma
The Doubble Donkey Disc

Tune all guitars 1/2 step down.
Chord names represent implied tonality.

Intro/melody section(3/4 time):

Guitar 1 only
e|-----------|
B|-----------|
G|-/6--4h6p4-|
D|-----------|
A|-----------|
E|-----------|
| kbd.      |
e|-12--101210|
B|-----------|
G|-----------|
D|-----------|
A|-----------|
E|-----------|

then
Both Guitars
  A           E           A           E           F#m         B5          A
e|-----------|-----------|-----------|-----------|-----------|-----------|--|
B|-----------|-----------|-----------|-----------|-----------|-----------|--|
G|2-2-2-2-2-2|-----------|2-2-2-2-2-2|-----------|-----------|4-4-4-4-4-4|2-|
D|2-2-2-2-2-2|2-2-2-2-2-2|2-2-2-2-2-2|2-2-2-2-2-2|4-4-4-4-4-4|4-4-4-4-4-4|2-|
A|0-0-0-0-0-0|2-2-2-2-2-2|0-0-0-0-0-0|2-2-2-2-2-2|4-4-4-4-4-4|2-2-2-2-2-2|0-|
E|-----------|0-0-0-0-0-0|-----------|0-0-0-0-0-0|2-2-2-2-2-2|2-2-2-2-2-2|--|
|1 + 2 + 3 + 1 + 2 + 3 + 1 + 2 + 3 + 1 + 2 + 3 + 1 + 2 + 3 + 1 + 2 + 3 +|1 |
|           |           |           |           |           |           |  |
|Keyboard arr. for guitar           |           |           |           |  |
e|9------7---|-----------|9------7---|-----------|9------7---|-----------|--|
B|---------10|9-------7--|---------10|9-------7--|10-----9-10|9-------7-9|10|
G|-----------|----------9|-----------|----------9|---------11|9p7-----7-9|--|
D|-----------|-----------|-----------|-----------|-----------|-----------|11|
A|-----------|-----------|-----------|-----------|-----------|-----------|--|
E|-----------|-----------|-----------|-----------|-----------|-----------|--|
  1 + 2 +3 +  1 + 2 + 3 + 1 + 2 +3 +  1 + 2 + 3 + 1 + 2 +3 +  1 + 2 + 3 + 1

Verse(4/4 time)
Chords:
   A  C#m  D  Bm  F#m E
e|----------------------|
B|----------------------|
G|-2--6----7---4--------|
D|-2--6----7---4--4---2-|
A|-0--4----5---2--4---2-|
E|----4----5---2--2---0-|

A             
   Wesley Willis
C#m
   starts to break down
D
   feels the beat and
Bm
   hits the dance floor
A                C#m
   i will listen to the radio
D                    Bm
   still i cant hear you on the telephone

it's a shakedown so count from one to three
and shake your booty 'til the early dawn
you gotta be laid back, rock to obscurity
then you will surely find there's nothing wrong with me

(Keyboard melody)

verse kybd. melody arr. for guitar
e|----------------|----------------|----------------|7-------7-------|
B|--109-107-10--10|--10--10--10--10|--109-107-10--10|--109-10--109-10|
G|------------9---|7---6---7---9---|------------9---|----------------|
D|----------------|----------------|----------------|----------------| 4x
A|----------------|----------------|----------------|----------------|
E|----------------|----------------|----------------|----------------|
  1 + 2 + 3 + 4 +  1 + 2 + 3 + 4 +  1 + 2 + 3 + 4 +  1 + 2 + 3 + 4 +

three months have passed
and no reception has left me searching for another one
it's too bad that i was believing
that you could ever be more than deceiving

and when i listen to the radio
now i'm not thinking things about you
and all the things you say that drive me crazy
could not compare to the things you never say

(Keyboard melody 2x)

Bridge(3/4 time):

C#m        F#m
now is the end
Bm                E
i will call her a friend
C#m       F#m         Bm           E
i won't regret what i said (what i said)




Guitar Solo:-(Chords played by guitar 1)
   A         D   F#m E    A        D      F#m  G
e|------------------------------------------------------------|
B|-----------------7-----------------------------------7-9-10-|
G|---------6-9-------------------6-9----7-6------6-7-9--------|
D|/7-----9-----------9---/7----9---------------9--------------|
A|------------------------------------------------------------|
E|------------------------------------------------------------|
  A         D   F#m   E          A      D           F#m
e|--/12-1212121212-14-------------------12--------------
B|--------------------12---10h12-12bb14----12b14b12-10--
G|------------------------------------------------------
D|------------------------------------------------------
A|------------------------------------------------------
E|------------------------------------------------------
            G                      A
e|----------------------12b14b12-9----|
B|----10-12-12b13b12-10------------10-|
G|-/11--------------------------------|
D|------------------------------------|
A|------------------------------------|
E|------------------------------------|

(random feedback and electronic sounds)

last verse:

when i become a man then i will surely see
that you were just a girl and you were wrong for me
if you would ever call i know that i'd be home
                   (guitars come in on B)
because i'm waiting and i'm all alone

(keyboard melody)

End on A

imatreeandurnot

10. Continental Drift

Tab transcribed by Pagoona

Continental Drift
Ozma
The Doubble Donkey Disc

Continental Drift

Eb :----------------|----------------|----------------|----------------|
Bb :----------------|----------------|----------------|----------------|
Gb :----------------|----------------|----------------|----------------|
Db :5-5-5-5-5-5-5-5-|4-4-4-4-4-4-4-4-|3-3-3-3-3-3-3-3-|4-4-4-4-4-4-4-4-|
Ab :3-3-3-3-3-3-3-3-|3-3-3-3-3-3-3-3-|3-3-3-3-3-3-3-3-|3-3-3-3-3-3-3-3-|
Eb :3-3-3-3-3-3-3-3-|2-2-2-2-2-2-2-2-|1-1-1-1-1-1-1-1-|2-2-2-2-2-2-2-2-|

Eb :----------------|----------------|----------------|----------------|
Bb :----------------|----------------|----------------|----------------|
Gb :----------------|----------------|----------------|----------------|
Db :5-5-5-5-5-5-5-5-|4-4-4-4-4-4-4-4-|3-3-3-3-3-3-3-3-|4-4-4-4-4-4-4-4-|
Ab :3-3-3-3-3-3-3-3-|3-3-3-3-3-3-3-3-|3-3-3-3-3-3-3-3-|3-3-3-3-3-3-3-3-|
Eb :3-3-3-3-3-3-3-3-|2-2-2-2-2-2-2-2-|1-1-1-1-1-1-1-1-|2-2-2-2-2-2-2-2-|

Eb :----------------|----------------|----------------|----------------|
Bb :----------------|----------------|----------------|----------------|
Gb :----------------|----------------|----------------|----------------|
Db :5-5-5-5-5-5-5-5-|4-4-4-4-4-4-4-4-|3-3-3-3-3-3-3-3-|4-4-4-4-4-4-4-4-|
Ab :3-3-3-3-3-3-3-3-|3-3-3-3-3-3-3-3-|3-3-3-3-3-3-3-3-|3-3-3-3-3-3-3-3-|
Eb :3-3-3-3-3-3-3-3-|2-2-2-2-2-2-2-2-|1-1-1-1-1-1-1-1-|2-2-2-2-2-2-2-2-|

Eb :----------------|----------------|----------------|----------------|
Bb :----------------|----------------|----------------|----------------|
Gb :----------------|----------------|----------------|----------------|
Db :5-5-5-5-5-5-5-5-|4-4-4-4-4-4-4-4-|3-3-3-3-3-3-3-3-|4-4-4-4-4-4-4-4-|
Ab :3-3-3-3-3-3-3-3-|3-3-3-3-3-3-3-3-|3-3-3-3-3-3-3-3-|3-3-3-3-3-3-3-3-|
Eb :3-3-3-3-3-3-3-3-|2-2-2-2-2-2-2-2-|1-1-1-1-1-1-1-1-|2-2-2-2-2-2-2-2-|

Eb :----------------|----------------|----------------|----------------|
Bb :----------------|----------------|----------------|----------------|
Gb :----------------|----------------|----------------|----------------|
Db :5-5-5-5-5-5-5-5-|4-4-4-4-4-4-4-4-|3-3-3-3-3-3-3-3-|4-4-4-4-4-4-4-4-|
Ab :3-3-3-3-3-3-3-3-|3-3-3-3-3-3-3-3-|3-3-3-3-3-3-3-3-|3-3-3-3-3-3-3-3-|
Eb :3-3-3-3-3-3-3-3-|2-2-2-2-2-2-2-2-|1-1-1-1-1-1-1-1-|2-2-2-2-2-2-2-2-|

Eb :----------------|----------------|----------------|----------------|
Bb :----------------|----------------|----------------|----------------|
Gb :----------------|----------------|----------------|----------------|
Db :5-5-5-5-5-5-5-5-|4-4-4-4-4-4-4-4-|3-3-3-3-3-3-3-3-|4-4-4-4-4-4-4-4-|
Ab :3-3-3-3-3-3-3-3-|3-3-3-3-3-3-3-3-|3-3-3-3-3-3-3-3-|3-3-3-3-3-3-3-3-|
Eb :3-3-3-3-3-3-3-3-|2-2-2-2-2-2-2-2-|1-1-1-1-1-1-1-1-|2-2-2-2-2-2-2-2-|

Eb :----------------|----------------|----------------|----------------|
Bb :----------------|----------------|----------------|----------------|
Gb :----------------|----------------|----------------|----------------|
Db :5-5-5-5-5-5-5-5-|4-4-4-4-4-4-4-4-|3-3-3-3-3-3-3-3-|4-4-4-4-4-4-4-4-|
Ab :3-3-3-3-3-3-3-3-|3-3-3-3-3-3-3-3-|3-3-3-3-3-3-3-3-|3-3-3-3-3-3-3-3-|
Eb :3-3-3-3-3-3-3-3-|2-2-2-2-2-2-2-2-|1-1-1-1-1-1-1-1-|2-2-2-2-2-2-2-2-|

Eb :----------------|----------------|----------------|----------------|
Bb :----------------|----------------|----------------|----------------|
Gb :----------------|----------------|----------------|----------------|
Db :5-5-5-5-5-5-5-5-|4-4-4-4-4-4-4-4-|3-3-3-3-3-3-3-3-|8---------------|
Ab :3-3-3-3-3-3-3-3-|3-3-3-3-3-3-3-3-|3-3-3-3-3-3-3-3-|8---------------|
Eb :3-3-3-3-3-3-3-3-|2-2-2-2-2-2-2-2-|1-1-1-1-1-1-1-1-|6---------------|

Eb :7-----5---------|5-----3---------|7-----5---------|7---------------|
Bb :5-----7---------|5-----5---------|5-----7---------|8---------------|
Gb :5-----7---------|4-----4---------|5-----7---------|7---------------|
Db :----------------|----------------|----------------|----------------|
Ab :----------------|----------------|----------------|----------------|
Eb :----------------|----------------|----------------|----------------|

Eb :7-----5---------|5-----4---------|3---------------|2---------------|
Bb :5-----7---------|5-----5---------|5---------------|3---------------|
Gb :5-----7---------|4-----4---------|5---------------|2---------------|
Db :----------------|----------------|----------------|----------------|
Ab :----------------|----------------|----------------|----------------|
Eb :----------------|----------------|----------------|----------------|

Eb :----------------|----------------|----------------|----------------|
Bb :----------------|----------------|----------------|----------------|
Gb :----------------|----------------|----------------|----------------|
Db :5-5-5-5-5-5-5-5-|4-4-4-4-4-4-4-4-|3-3-3-3-3-3-3-3-|4-4-4-4-4-4-4-4-|
Ab :3-3-3-3-3-3-3-3-|3-3-3-3-3-3-3-3-|3-3-3-3-3-3-3-3-|3-3-3-3-3-3-3-3-|
Eb :3-3-3-3-3-3-3-3-|2-2-2-2-2-2-2-2-|1-1-1-1-1-1-1-1-|2-2-2-2-2-2-2-2-|

Eb :----------------|----------------|----------------|----------------|
Bb :----------------|----------------|----------------|----------------|
Gb :----------------|----------------|----------------|----------------|
Db :5-5-5-5-5-5-5-5-|4-4-4-4-4-4-4-4-|3-3-3-3-3-3-3-3-|4-4-4-4-4-4-4-4-|
Ab :3-3-3-3-3-3-3-3-|3-3-3-3-3-3-3-3-|3-3-3-3-3-3-3-3-|3-3-3-3-3-3-3-3-|
Eb :3-3-3-3-3-3-3-3-|2-2-2-2-2-2-2-2-|1-1-1-1-1-1-1-1-|2-2-2-2-2-2-2-2-|

Eb :----------------|----------------|----------------|----------------|
Bb :----------------|----------------|----------------|----------------|
Gb :----------------|----------------|----------------|----------------|
Db :5-5-5-5-5-5-5-5-|4-4-4-4-4-4-4-4-|3-3-3-3-3-3-3-3-|4-4-4-4-4-4-4-4-|
Ab :3-3-3-3-3-3-3-3-|3-3-3-3-3-3-3-3-|3-3-3-3-3-3-3-3-|3-3-3-3-3-3-3-3-|
Eb :3-3-3-3-3-3-3-3-|2-2-2-2-2-2-2-2-|1-1-1-1-1-1-1-1-|2-2-2-2-2-2-2-2-|

Eb :----------------|----------------|----------------|----------------|
Bb :----------------|----------------|----------------|----------------|
Gb :----------------|----------------|----------------|----------------|
Db :5-5-5-5-5-5-5-5-|4-4-4-4-4-4-4-4-|3-3-3-3-3-3-3-3-|4-4-4-4-4-4-4-4-|
Ab :3-3-3-3-3-3-3-3-|3-3-3-3-3-3-3-3-|3-3-3-3-3-3-3-3-|3-3-3-3-3-3-3-3-|
Eb :3-3-3-3-3-3-3-3-|2-2-2-2-2-2-2-2-|1-1-1-1-1-1-1-1-|2-2-2-2-2-2-2-2-|

Eb :----------------|----------------|----------------|----------------|
Bb :----------------|----------------|----------------|----------------|
Gb :----------------|----------------|----------------|----------------|
Db :5-5-5-5-5-5-5-5-|4-4-4-4-4-4-4-4-|3-3-3-3-3-3-3-3-|4-4-4-4-4-4-4-4-|
Ab :3-3-3-3-3-3-3-3-|3-3-3-3-3-3-3-3-|3-3-3-3-3-3-3-3-|3-3-3-3-3-3-3-3-|
Eb :3-3-3-3-3-3-3-3-|2-2-2-2-2-2-2-2-|1-1-1-1-1-1-1-1-|2-2-2-2-2-2-2-2-|

Eb :----------------|----------------|----------------|----------------|
Bb :----------------|----------------|----------------|----------------|
Gb :----------------|----------------|----------------|----------------|
Db :5-5-5-5-5-5-5-5-|4-4-4-4-4-4-4-4-|3-3-3-3-3-3-3-3-|8---------------|
Ab :3-3-3-3-3-3-3-3-|3-3-3-3-3-3-3-3-|3-3-3-3-3-3-3-3-|8---------------|
Eb :3-3-3-3-3-3-3-3-|2-2-2-2-2-2-2-2-|1-1-1-1-1-1-1-1-|6---------------|

Eb :7-----5---------|5-----3---------|7-----5---------|7---------------|
Bb :5-----7---------|5-----5---------|5-----7---------|8---------------|
Gb :5-----7---------|4-----4---------|5-----7---------|7---------------|
Db :----------------|----------------|----------------|----------------|
Ab :----------------|----------------|----------------|----------------|
Eb :----------------|----------------|----------------|----------------|

Eb :7-----5---------|5-----4---------|3---------------|2---------------|
Bb :5-----7---------|5-----5---------|5---------------|3---------------|
Gb :5-----7---------|4-----4---------|5---------------|2---------------|
Db :----------------|----------------|----------------|----------------|
Ab :----------------|----------------|----------------|----------------|
Eb :----------------|----------------|----------------|----------------|

Eb :----------------|----------------|----------------|----------------|
Bb :----------------|----------------|----------------|----------------|
Gb :5-5-5-7-7-7-7-7-|4-4-4-9-9-9-9-9-|5-5-5-7-7-7-7-7-|----------------|
Db :5-5-5-7-7-7-7-7-|4-4-4-9-9-9-9-9-|5-5-5-7-7-7-7-7-|5-5-5-5-5-5-5-5-|
Ab :3-3-3-5-5-5-5-5-|2-2-2-7-7-7-7-7-|3-3-3-5-5-5-5-5-|5-5-5-5-5-5-5-5-|
Eb :----------------|----------------|----------------|3-3-3-3-3-3-3-3-|

Eb :----------------|----------------|----------------|----------------|
Bb :----------------|----------------|----------------|----------------|
Gb :5-5-5-7-7-7-7-7-|4-6-8-9-9-9-9-9-|----------------|7-7-7-7-7-7-7-7-|
Db :5-5-5-7-7-7-7-7-|4-6-8-9-9-9-9-9-|7-7-7-7-7-7-7-7-|7-7-7-7-7-7-7-7-|
Ab :3-3-3-5-5-5-5-5-|2-4-6-7-7-7-7-7-|7-7-7-7-7-7-7-7-|5-5-5-5-5-5-5-5-|
Eb :----------------|----------------|5-5-5-5-5-5-5-5-|----------------|

Eb :----------------|----------------|----------------|----------------|
Bb :----------------|----------------|----------------|----------------|
Gb :5-5-5-7-7-7-7-7-|4-4-4-9-9-9-9-9-|5-5-5-7-7-7-7-7-|----------------|
Db :5-5-5-7-7-7-7-7-|4-4-4-9-9-9-9-9-|5-5-5-7-7-7-7-7-|5-5-5-5-5-5-5-5-|
Ab :3-3-3-5-5-5-5-5-|2-2-2-7-7-7-7-7-|3-3-3-5-5-5-5-5-|5-5-5-5-5-5-5-5-|
Eb :----------------|----------------|----------------|3-3-3-3-3-3-3-3-|

Eb :----------------|----------------|----------------|----------------|
Bb :----------------|----------------|----------------|----------------|
Gb :5-5-5-7-7-7-7-7-|4-6-8-9-9-9-9-9-|----------------|7-7-7-7-7-7-7-7-|
Db :5-5-5-7-7-7-7-7-|4-6-8-9-9-9-9-9-|7-7-7-7-7-7-7-7-|7-7-7-7-7-7-7-7-|
Ab :3-3-3-5-5-5-5-5-|2-4-6-7-7-7-7-7-|7-7-7-7-7-7-7-7-|5-5-5-5-5-5-5-5-|
Eb :----------------|----------------|5-5-5-5-5-5-5-5-|----------------|

Eb :----------------|----------------|----------------|----------------|
Bb :----------------|----------------|----------------|----------------|
Gb :5-5---7---------|4-4-------------|5---5-7-7---7-7-|----------------|
Db :5-5---7---------|4-4---2---------|5---5-7-7---7-7-|5-5-5-5-5-5-5-5-|
Ab :3-3---5---------|2-2---2---------|3---3-5-5---5-5-|5-5-5-5-5-5-5-5-|
Eb :----------------|------0---------|----------------|3-3-3-3-3-3-3-3-|

Eb :----------------|----------------|----------------|----------------|
Bb :----------------|----------------|----------------|----------------|
Gb :5-5---7---------|4-4-------------|----------------|----------------|
Db :5-5---7---------|4-4---2---------|7-7-7-7-7-7-7-7-|7-7-7-7-7-7-7-7-|
Ab :3-3---5---------|2-2---2---------|7-7-7-7-7-7-7-7-|7-7-7-7-7-7-7-7-|
Eb :----------------|------0---------|5-5-5-5-5-5-5-5-|5-5-5-5-5-5-5-5-|

Eb :----------------|----------------|----------------|----------------|
Bb :----------------|----------------|----------------|----------------|
Gb :7-7-7-7-7-7-7-7-|----------------|5---5-5-5---5---|----------------|
Db :7-7-7-7-7-7-7-7-|5-5-5-5-5-5-5-5-|5---5-5-5---5---|7---7-7-7-7---7-|
Ab :5-5-5-5-5-5-5-5-|5-5-5-5-5-5-5-5-|3---3-3-3---3---|7---7-7-7-7---7-|
Eb :----------------|3-3-3-3-3-3-3-3-|----------------|5---5-5-5-5---5-|

Eb :----------------|----------------|----------------|----5---------------|
Bb :----------------|----------------|----------------|--5-----------------|
Gb :----------------|----------------|5-5-x-5-5---*---|5-------------------|
Db :3---3-3-3---3---|5---5-5-5-5-5-5-|5-5-x-5-5---*---|--------------------|
Ab :3---3-3-3---3---|5---5-5-5-5-5-5-|3-3-x-3-3---*---|--------------------|
Eb :1---1-1-1---1---|3---3-3-3-3-3-3-|----------------|--------------------|

Eb :----------------|----------------|----------------|----------------|
Bb :----------------|----------------|----------------|----------------|
Gb :----------------|----------------|----------------|----------------|
Db :3-3-3-3-3-3-3-3-|4-4-4-4-4-4-4-4-|5-5-5-5-5-5-5-5-|4-4-4-4-4-4-4-4-|
Ab :3-3-3-3-3-3-3-3-|3-3-3-3-3-3-3-3-|3-3-3-3-3-3-3-3-|3-3-3-3-3-3-3-3-|
Eb :1-1-1-1-1-1-1-1-|2-2-2-2-2-2-2-2-|3-3-3-3-3-3-3-3-|2-2-2-2-2-2-2-2-|

Eb :----------------|----------------|----------------|----------------|
Bb :----------------|----------------|----------------|----------------|
Gb :----------------|----------------|----------------|----------------|
Db :3-3-3-3-3-3-3-3-|4-4-4-4-4-4-4-4-|5-5-5-5-5-5-5-5-|4-4-4-4-4-4-4-4-|
Ab :3-3-3-3-3-3-3-3-|3-3-3-3-3-3-3-3-|3-3-3-3-3-3-3-3-|3-3-3-3-3-3-3-3-|
Eb :1-1-1-1-1-1-1-1-|2-2-2-2-2-2-2-2-|3-3-3-3-3-3-3-3-|2-2-2-2-2-2-2-2-|

Eb :----------------|----------------|----------------|----------------|
Bb :----------------|----------------|----------------|----------------|
Gb :----------------|----------------|----------------|----------------|
Db :3-3-3-3-3-3-3-3-|4-4-4-4-4-4-4-4-|5-5-5-5-5-5-5-5-|4-4-4-4-4-4-4-4-|
Ab :3-3-3-3-3-3-3-3-|3-3-3-3-3-3-3-3-|3-3-3-3-3-3-3-3-|3-3-3-3-3-3-3-3-|
Eb :1-1-1-1-1-1-1-1-|2-2-2-2-2-2-2-2-|3-3-3-3-3-3-3-3-|2-2-2-2-2-2-2-2-|

Eb :----------------|----------------|----------------|----------------|
Bb :----------------|----------------|----------------|----------------|
Gb :----------------|----------------|----------------|----------------|
Db :3-3-3-3-3-3-3-3-|4-4-4-4-4-4-4-4-|5-5-5-5-5-5-5-5-|4-4-4-4-4-4-4-4-|
Ab :3-3-3-3-3-3-3-3-|3-3-3-3-3-3-3-3-|3-3-3-3-3-3-3-3-|3-3-3-3-3-3-3-3-|
Eb :1-1-1-1-1-1-1-1-|2-2-2-2-2-2-2-2-|3-3-3-3-3-3-3-3-|2-2-2-2-2-2-2-2-|

Eb :----------------|----------------|----------------|----------------|
Bb :----------------|----------------|----------------|----------------|
Gb :----------------|----------------|----------------|----------------|
Db :3-3-3-3-3-3-3-3-|4-4-4-4-4-------|5-5-5-5-5-5-5-5-|4-4-4-4-4-4-4-4-|
Ab :3-3-3-3-3-3-3-3-|3-3-3-3-3-------|3-3-3-3-3-3-3-3-|3-3-3-3-3-3-3-3-|
Eb :1-1-1-1-1-1-1-1-|2-2-2-2-2-------|3-3-3-3-3-3-3-3-|2-2-2-2-2-2-2-2-|

Eb :----------------|----------------|----------------|----------------|
Bb :----------------|----------------|----------------|----------------|
Gb :----------------|----------------|----------------|----------------|
Db :3-3-3-3-3-3-3-3-|4-4-4-4-4-4-4-4-|5-5-5-5-5-5-5-5-|4-4-4-4-4-4-4-4-|
Ab :3-3-3-3-3-3-3-3-|3-3-3-3-3-3-3-3-|3-3-3-3-3-3-3-3-|3-3-3-3-3-3-3-3-|
Eb :1-1-1-1-1-1-1-1-|2-2-2-2-2-2-2-2-|3-3-3-3-3-3-3-3-|2-2-2-2-2-2-2-2-|

Eb :----------------|----------------|
Bb :----------------|----------------|
Gb :----------------|----------------|
Db :3-3-3-3-3-3-3-3-|8---------------|
Ab :3-3-3-3-3-3-3-3-|8---------------|
Eb :1-1-1-1-1-1-1-1-|6---------------|

Go Up