[Bass] Double Donkey Disc

Started by imatreeandurnot, December 23, 2004, 05:17:22 pm

previous topic - next topic

0 Members and 1 Guest are viewing this topic.

Go Down

imatreeandurnot

December 23, 2004, 05:17:22 pm Last Edit: December 26, 2004, 07:40:45 am by imatreeandurnot
1. Flight Of Yuri Gagarin

Tab transcribed by Jason The Great

Ozma
Flight of Yuri Gagarin
Tabbed by Jason The Great

Tuning: 1/2 step down

Intro

I don't think/know if there is actually any bass in the intro, but you
can play along anyway and it sounds fine.

Gb|------------------------------------------------------------------|
Db|-----------------------------------9------------------10-10-9-7-9-|
Ab|-------------2--2---2-3-4-5-6-7--7---7------9---------------------|x2
Eb|-3--3--5--5----------------------------7--7---7-8--8--------------|

and then...

(fade in marching)

Gb|-----------------|-----------------|-----------------|-----------------|
Db|-----------------|-----------------|-----------------|-----------------|
Ab|-----------------|-----------------|-----------------|-----------------|
Eb|-0-0---0-0---0---|-0-0---0-0---0---|-0-0---0-0---0---|-0-0---0-0---0---|

(enter vocals)

Gb|-----------------|-----------------|-----------------|-----------------|
Db|-----------------|-----------------|-----------------|-----------------|
Ab|-----------------|-----------------|-----------------|-----------------|
Eb|-0-0---0-0---0---|-0-0---0-0---0---|-0-0---0-0---0---|-0-0---0-0---0---|

Gb|-----------------|-----------------|-----------------|-----------------|
Db|-----------------|-----------------|-----------------|-----------------|
Ab|-----------------|-2-2---2-2---2---|-3-3---3-5---5---|-----------------|
Eb|-0-0---0-0---0---|-----------------|-----------------|-3-3---3-3--/7\--|

(enter balalaika)

Gb|-----------------|-----------------|-----------------|-----------------|
Db|-----------------|-----------------|-----------------|-----------------|
Ab|-----------------|-----------------|-----------------|-----------------|
Eb|-0-0---0-0---0---|-0-0---0-0---0---|-0-0---0-0---0---|-0-0---0-0---0---|

(enter flute)

Gb|-----------------|-----------------|-----------------|-----------------|
Db|-----------------|-----------------|-----------------|-----------------|
Ab|-----------------|-----------------|-----------------|-----------------|
Eb|-0-0---0-0---0---|-0-0---0-0---0---|-0-0---0-0---0---|-0-0---0-0---0---|

Gb|-----------------|-----------------|-----------------|-----------------|
Db|-----------------|-----------------|-----------------|-----------------|
Ab|-----------------|-----------------|-----------------|-----------------|
Eb|-0-0---0-0---0---|-0-0---0-0---0---|-0-0---0-0---0---|-0-0---0-0---/7\-|

(balalaika & flute)

Gb|-----------------|-----------------|-----------------|-----------------|
Db|-----------------|-----------------|-----------------|-----------------|
Ab|-----------------|-2-2---2-2---2---|-3-3---3-5---5---|-----------------|
Eb|-0-0---0-0---0---|-----------------|-----------------|-3-3---3-3--/7\--|

(flute solo)

Gb|-----------------|-----------------|-----------------|-----------------|
Db|-----------------|-----------------|-----------------|-----------------|
Ab|-----------------|-----------------|-----------------|-----------------|
Eb|-0-0---0-0---0---|-0-0---0-0---0---|-0-0---0-0---0---|-0-0---0-0---0---|

(balalaika & flute)

Gb|-----------------|-----------------|-----------------|---|
Ab|-----------------|-----------------|-----------------|---|
Ab|-----------------|-2-2---2-2---2---|-3-3---3-5---5---|-6-|
Eb|-0-0---0-0---0---|-----------------|-----------------|---|

Outro

Gb|---|---|---|
Db|---|---|---|
Ab|-6-|-5-|---|
Eb|---|---|-3-|

imatreeandurnot

December 23, 2004, 05:22:34 pm #1 Last Edit: December 26, 2004, 07:43:08 am by imatreeandurnot
2. No One Needs To Know

This tab is missing! Maybe you have it written down somewhere? Neato! Send it to either via email to Joe or Rieg or via Private Message to Jason or Joe or Rieg!
Ofcourse you will be credited and your tab will be posted here unedited!

imatreeandurnot

December 23, 2004, 05:24:40 pm #2 Last Edit: March 07, 2005, 08:08:44 am by imatreeandurnot
3. Korobeiniki

Tab transcribed by Jason the Great

Ozma
Korobeiniki
Tabbed by Jason the Great

Tuning: 1/2 step down

note: when you see something like "1212", i mean -12-12-, not -1-2-1-2-

there are some parts in this song tabbed for "bass 1" and "bass 2".  in reality,
both lines are played at once.  he drones the open A while playing the "bass 2"
lines on the D and G strings.  Dan is pretty good.

INTRO

bass 1
Gb|-----------------------------------------------------------------|
Db|-----------------------------------------------------------------|
Ab|-0-0-0-0-0-0-0-0-0-0-0-0-0-0-0-0-0-0-0-0-0-0-0-0-0-0-0-0-0-0-0-0-|x2
Eb|-----------------------------------------------------------------|

bass 2
Gb|-9-12------5-7------------|
Db|------10-------5---7-9-10-|
Ab|--------------------------|
Eb|--------------------------|



(guitars come in)
Gb|-----------------------------------------------------------------|
Db|-----------------------------------------------------------------|
Ab|-0-0-0-0-0-0-0-0-0-0-0-0-0-0-0-0-0-0-0-0-0-0-0-0-0-0-0-0-0-0-0-0-|
Eb|-----------------------------------------------------------------|

Gb|-----------------------------------------------------------------|
Db|-----------------------------------------------------------------|
Ab|-0-0-0-0-0-0-0-0-2-2-2-2-2-2-2-2-3-3-3-3-3-3-3-3-7-7-7-7-7-7-7-7-|
Eb|-----------------------------------------------------------------|

FIRST VERSE

Gb|-----------------------------------------------------------|
Db|-----------------------------------------------------------|
Ab|-----------------0-----0-0-0-0-0-----------------0---0---0-|
Eb|-0-----0-0-0-0-0-----------------0-----0-0-0-0-0-----------|

Gb|-----------------------------------------------------------|
Db|-----------------------------------------------------------|
Ab|-5-----5-5-5-3-2-0-0-0-0-0-0---------------------0---0---0-|
Eb|-----------------------------4-2-0-0-0-0-0-0-0-0-----------|

Gb|----------------------------------------------------------------|
Db|----------------------------------------------------------------|
Ab|/11111111111111111212121212121212121411111111----111112/--0---0-|
Eb|---------------------------------------------1212---------------|

Gb|-----------------------------------------------------------|
Db|-----------------------------------------------------------|
Ab|-5-----5-5-5-3-2-0-----0-0-0---------------------0---0---0-|
Eb|-----------------------------4-2-0-0-0-0-0-0-0-0-----------|

CHORUS

Gb|-----------------------------------------------------------------|
Db|-----------------------------------------------------------------|
Ab|-0-0-0-0-0-0-0-0-2-2-2-2-2-2-2-2-3-3-3-3-3-3-3-3-7-7-7-7-7-7-7-7-|
Eb|-----------------------------------------------------------------|

Gb|------------------------------------------------------------|
Db|-------------------------------------------------6-6-6-6-6--|
Ab|-7-7-7-7-7-7-7-7-8-8-8-8-8-8-8-8-9-9-9-9-9-9-9-9------------|
Eb|------------------------------------------------------------|

SECOND VERSE

Gb|-----------------------------------------------------------|
Db|-----------------------------------------------------------|
Ab|-----------------0-----0-0-0-0-0-----------------0---0---0-|
Eb|-0-----0-0-0-0-0-----------------0-----0-0-0-0-0-----------|

Gb|-----------------------------------------------------------|
Db|-----------------------------------------------------------|
Ab|-5-----5-5-5-3-2-0-0-0-0-0-0---------------------0---0---0-|
Eb|-----------------------------4-2-0-0-0-0-0-0-0-0-----------|

BRIDGE

bass 1
Gb|-----------------------------------------------------------------|
Db|-----------------------------------------------------------------|
Ab|-0-0-0-0-0-0-0-0-0-0-0-0-0-0-0-0-0-0-0-0-0-0-0-0-0-0-0-0-0-0-0-0-|x3
Eb|-----------------------------------------------------------------|

bass 2
Gb|-17-14----17-16-17-16-14-12----14--12------|
Db|-------14-------------------14---------14--|
Ab|-------------------------------------------|
Eb|-------------------------------------------|

bass 2
Gb|-17-14----17-16-17-16-14-12----11--12--14-|
Db|-------14-------------------14------------|
Ab|------------------------------------------|
Eb|------------------------------------------|

SECOND CHORUS

Gb|-----------------------------------------------------------------|
Db|-----------------------------------------------------------------|
Ab|-0-0-0-0-0-0-0-0-2-2-2-2-2-2-2-2-3-3-3-3-3-3-3-3-7-7-7-7-7-7-7-7-|
Eb|-----------------------------------------------------------------|

Gb|---------9-9------------1010------------1111---------------|
Db|-----9-9-----9-9----1010----1010----1111----1111-----------|
Ab|-7-7-------------8-8-------------9-9------------1111111111-|
Eb|-----------------------------------------------------------|

THIRD VERSE

Gb|----------------------------------------------------|
Db|----------------------------------------------------|
Ab|----------------------------5-5\-------------0-0--0-|
Eb|-0---5-5\---0-0---5-5--5\----------5---0-0----------|

Gb|----------------------------------------------------------------|
Db|----------------------------------------------------------------|
Ab|/11111111111111111212121212121212121411111111----111112/--0---0-|
Eb|---------------------------------------------1212---------------|

Gb|-------------------------------------------------------------|
Db|-------------------------------------------------------------|
Ab|-2-3-5-5-5-5-5-5-3-2-0-0-0-0-0-0-------------------0---0---0-|
Eb|---------------------------------4-2-0-0-0-0-0-0-0-----------|

Gb|-9---------8-9-10-|
Db|---9-10-12--------|
Ab|------------------|
Eb|------------------|

Gb|------------------------|
Db|------------------------|
Ab|----------------------5-|
Eb|-2-0-0-2--0-2-0---0-0---|

OUTRO

(i'm pretty sure this is wrong, try the way it's tabbed in the correction posted)
Gb|-----------------5-7-4-----------|
Db|---------7-------------7-0-------|
Ab|-5-3-0-0---8-5-5-----------0-0-0-|
Eb|---------------------------------|

i'm a teensy bit unsure about the outro, but the rest is close if
not perfect.  enjoy.






3. Korobeiniki

Tab transcribed by minorthreat

korobeiniki outro tab (bass)

Gb-------------------------------------------
Db-------------7--------10-12-9--------------
Ab--------0-0---8---------------8-7----------
Eb----0-8---------10-10------------8-5-5~----

imatreeandurnot

4. You Know The Story

This tab is missing! Maybe you have it written down somewhere? Neato! Send it to either via email to Joe or Rieg or via Private Message to Jason or Joe or Rieg!
Ofcourse you will be credited and your tab will be posted here unedited!

imatreeandurnot

5. Landing Of Yuri Gagarin

This tab is missing! Maybe you have it written down somewhere? Neato! Send it to either via email to Joe or Rieg or via Private Message to Jason or Joe or Rieg!
Ofcourse you will be credited and your tab will be posted here unedited!

imatreeandurnot

6. The Business Of Getting Down

This tab is missing! Maybe you have it written down somewhere? Neato! Send it to either via email to Joe or Rieg or via Private Message to Jason or Joe or Rieg!
Ofcourse you will be credited and your tab will be posted here unedited!

imatreeandurnot

7. Maybe In An Alternate Dimension

Tab transcribed by Evil Adam

[This was created with TabIt for Windows version 1.58]

Band: Ozma
Song: Maybe In An Alternate Dimension
Tabbed By: Evil Adam (KurtCobain38[at]hotmail.com)
           AIM=EvilAdam

Notes: Not much to mention here, just a straightforward bass tab.


Gb :----------------|----------------|-------------------|
Db :----------------|----------------|-------------------|
Ab :----------------|----------------|----15---14--------|
Eb :----------------|----------------|--------------15---|

Gb :------------------|----------------|----------------|
Db :14----------------|3-3-*-----------|------------2---|
Ab :---------14-------|------------2---|3-3-*-----------|
Eb :------------------|----------------|----------------|

Gb :----------------|----------------|----------------|----------------|
Db :3-3-*-----------|2-2-2-2-2-2-2-2-|3-3-*-----------|------------2---|
Ab :----------2-2---|----------------|------------2---|3-3-*-----------|
Eb :----------------|----------------|----------------|----------------|

Gb :----------------|----------------|----------------|----------------|
Db :3-3-*-----------|2-2-2-2-2-2-2-2-|3-3-*-----------|------------2---|
Ab :----------2-2---|----------------|------------2---|3-3-*-----------|
Eb :----------------|----------------|----------------|----------------|

Gb :----------------|----------------|----------------|----------------|
Db :3-3-*-----------|2-2-2-2-2-2-2-2-|3-3-3-3-5-5-5-5-|----------------|
Ab :----------2-2---|----------------|----------------|3-3-3-3-3-3-3-3-|
Eb :----------------|----------------|----------------|----------------|

Gb :----------------|----------------|----------------|----------------|
Db :3-3-3-3-5-5-3-3-|2-2-3-3-5-5-7-7-|3-3-3-3-5-5-5-5-|----------------|
Ab :----------------|----------------|----------------|3-3-3-3-3-3-3-3-|
Eb :----------------|----------------|----------------|----------------|

Gb :----2-------7---|9---------------|----------------|----------------|
Db :3-------5-------|----------------|----------------|----------------|
Ab :----------------|----------------|----------------|3-------3-------|
Eb :----------------|----------------|----------------|----------------|

Gb :----------------|----------------|----------------|----------------|
Db :----------------|----------------|--------0-------|----------------|
Ab :3-------3-------|----------------|------------0-2-|3-------3-------|
Eb :----3-------3---|1-------1-------|1-*-1-----------|----------------|

Gb :----------------|----------------|----------------|----------------|
Db :----------------|----------------|----1-*---1-*---|----------------|
Ab :3-------3-------|----------------|----------------|3-------3-------|
Eb :----3-------3---|1-------*-------|----------------|----------------|

Gb :----------------|------------------------|----------------|
Db :----------------|------------------------|--------0-------|
Ab :3-------3-------|------------------------|------------0-2-|
Eb :----3-------3---|1-----------1-----------|1-*-1-----------|

Gb :----------------|----------------|----------------|----------------|
Db :----------------|------------2---|3---------------|----------------|
Ab :3-------3-------|3---3---5-------|--------0-------|1-------2-------|
Eb :----------------|----------------|----------------|----------------|

Gb :----------------|----------------|----------------|----------------|
Db :----------------|----------------|----------------|----------------|
Ab :3---------------|3-*-----3-------|----------------|----------------|
Eb :----------------|----3-------3---|1-------*-------|1-*-1---*-------|

Gb :------------------|----------------|----------------|
Db :------------------|----------------|----3-*-2-3-*-2-|
Ab :3-------(3)-------|3-------3-------|----------------|
Eb :------------------|----3------3----|1---------------|

Gb :----------------|----------------|----------------|----------------|
Db :3-*-2-3-2-0-----|----------------|----------------|----------------|
Ab :------------0-2-|3-------*-------|3-------3-------|----------------|
Eb :----------------|----------------|----3------3----|1---*-----------|

Gb :----------------|----------------|----------------|----------------|
Db :----------------|----------------|----------------|0---0---0---0---|
Ab :----------------|0---0---0---0---|0---0---0---0---|----------------|
Eb :----------------|----------------|----------------|----------------|

Gb :----------------|----------------|----------------|----------------|
Db :0---*-----------|----------------|----------------|----------------|
Ab :----------------|----------------|----------------|3---3---3---3---|
Eb :----------------|1---1---1---1---|3---3---3---3---|----------------|

Gb :----------------|----------------|----------------|----------------|
Db :----------------|----------------|----------------|----------------|
Ab :3---3---3---3---|----------------|----------------|3---3---3---3---|
Eb :----------------|1---1---1---1---|3---3---3---3---|----------------|

Gb :----------------|----------------|----------------|----------------|
Db :----------------|----------------|----------------|----------------|
Ab :3---3---3---3---|----------------|----------------|0---------------|
Eb :----------------|1---1---1---1---|3---3---3---3---|------0-----1---|

Gb :----------------|----------------|----------------|----------------|
Db :----------------|----------------|----------------|----------------|
Ab :----------------|----------------|----------------|3---3---3---3---|
Eb :----1---1---1---|3---3---3---3---|3---3---3---3---|----------------|

Gb :----------------|----------------|----------------|----------------|
Db :----------------|----------------|----------------|----------------|
Ab :3---3---3---3---|----------------|----------------|3---3---3---3---|
Eb :----------------|1---1---1---1---|1---1---1---1---|----------------|

Gb :----------------|----------------|----------------|----------------|
Db :----------------|----------------|----------------|----------------|
Ab :3---3---3---3---|----------------|----------------|3---3---3---3---|
Eb :----------------|1---1---1---1---|1---1---1---1---|----------------|

Gb :----------------|----------------|----------------|----------------|
Db :----------------|--------1-------|----1-----------|----------------|
Ab :3---3---3---3---|----0-----------|0---------------|0---0---0---0---|
Eb :----------------|1-----------1---|--------1---1---|----------------|

Gb :----------------|----------------|----------------|----------------|
Db :----------------|0---0---0---0---|0---*-----------|----------------|
Ab :0---0---0---0---|----------------|----------------|3---------------|
Eb :----------------|----------------|----------------|----------------|

Gb :----------------|----------------|----------------|----------------|
Db :----------------|----------------|----------------|----------------|
Ab :----------------|----------------|--------5-------|3---------------|
Eb :--------0-------|1---------------|----------------|----------------|

Gb :----------------|--------16-17-*-14-|16-*-12-14-*-10--10-12-10|
Db :----------------|-------------------|-------------------------|
Ab :----------------|-------------------|-------------------------|
Eb :--------0-------|1------------------|-------------------------|

Gb :9---------------|----------------|----------------|----------------|
Db :----------------|------------1---|----------------|----------------|
Ab :----------------|--------0-------|----------------|----------------|
Eb :----------------|----1-----------|1---*-----------|----------------|

Gb :----------------|----------------|----------------|----------------|
Db :----------------|----------------|0---0---0---0---|0---*-----------|
Ab :0---0---0---0---|0---0---0---0---|----------------|----------------|
Eb :----------------|----------------|----------------|----------------|

Gb :----------------|----------------|----------------|----------------|
Db :----------------|----------------|----0---2-0-----|----------------|
Ab :----------------|----------------|3-----------3---|3---3---3---3---|
Eb :1---1---1---1---|3---3---3---3---|----------------|----------------|

Gb :----------------|----------------|----------------|----------------|
Db :----------------|----------------|----0---2-0-----|----------------|
Ab :----------------|----------------|3-----------3---|3---3---3---3---|
Eb :1---1---1---1---|3---3---3---3---|----------------|----------------|

Gb :----------------|----------------|----------------|----------------|
Db :----------------|----------------|----------------|----------------|
Ab :----------------|----------------|0---------------|----------------|
Eb :1---1---1---1---|3---3---3---3---|------0-----1---|----1---1---1---|

Gb :----------------|----------------|----------------|----------------|
Db :----------------|----------------|----------------|----------------|
Ab :----------------|----------------|3---3---3---3---|3---3---3---3---|
Eb :3---3---3---3---|3---3---3---3---|----------------|----------------|

Gb :----------------|----------------|----------------|----------------|
Db :----------------|----------------|----------------|----------------|
Ab :----------------|----------------|3---3---3---3---|3---3---3---3---|
Eb :1---1---1---1---|1---1---1---1---|----------------|----------------|

Gb :----------------|----------------|----------------|----------------|
Db :----------------|----------------|----------------|----------------|
Ab :----------------|----------------|3---3---3---3---|3---3---3---3---|
Eb :1---1---1---1---|1---1---1---1---|----------------|----------------|

Gb :----------------|----------------|----------------|----------------|
Db :--------1-------|----1-----------|----------------|----------------|
Ab :----0-----------|0---------------|0---0---0---0---|0---0---0---0---|
Eb :1-----------1---|--------1---1---|----------------|----------------|

Gb :----------------|----------------|--------2-------|--------2-------|
Db :0---0---0---0---|0---0---0---0---|----------------|----------------|
Ab :----------------|----------------|0-*-0-0-------0-|0-*-0-0---0-3-4-|
Eb :----------------|----------------|----------------|----------------|

Gb :--------7---5-7-|--5-7---5-7-----|------------------|
Db :0-*-0-0---0-----|0-----0-----5-7-|7-*-7-----7-9-9-10|
Ab :----------------|----------------|------------------|
Eb :----------------|----------------|------------------|

Gb :----------------|--------2-------|----------------|--------2-------|
Db :9---7-----------|0-*-0---------0-|0---0---0---0---|----------------|
Ab :------8-7---7-0-|----------------|----------------|0-*-0-0-------0-|
Eb :----------------|----------------|----------------|----------------|

Gb :--------2-------|----------------|----------------|----------------|
Db :----------------|0-0-0-0-0-0-0-0-|2-2-2-2-2-2-2-2-|3-3-*-----------|
Ab :0-*-0-0---0-3-4-|----------------|----------------|------------2---|
Eb :----------------|----------------|----------------|----------------|

Gb :----------------|----------------|----------------|----------------|
Db :------------2---|3-3-*-----------|2-2-2-2-2-2-2-2-|3-3-*-----------|
Ab :3-3-*-----------|------------2---|----------------|------------2---|
Eb :----------------|----------------|----------------|----------------|

Gb :----------------|----------------|----------------|----------------|
Db :------------2---|3-3-*-----------|----------------|----------------|
Ab :3-3-*-----------|------------2---|----------------|----------------|
Eb :----------------|----------------|0-0-0-0-0-0-0-0-|1-1-1-1-3-3-3-3-|

Gb :----------------|----------------|----------------|----------------|
Db :----------------|3-3-3-3-5-5-3-3-|2-2-3-3-5-5-7-7-|3-3-3-3-5-5-5-5-|
Ab :3-3-3-3-3-3-3-3-|----------------|----------------|----------------|
Eb :----------------|----------------|----------------|----------------|

Gb :----------------|----2-------4---|--------2-------|--------2-------|
Db :----------------|3-------5-------|----------------|----------------|
Ab :3-3-3-3-3-3-3-3-|----------------|0-*-0---------0-|0-*-0---------0-|
Eb :----------------|----------------|----------------|----------------|

Gb :--------7-------|--------7-------|----------------|----------------|
Db :0-*-0---------0-|0-*-0---------0-|----------------|----------------|
Ab :----------------|----------------|----------------|--------2-------|
Eb :----------------|----------------|3-*-3---3-----3-|3-*-3-----------|

Gb :----------------|----------------|----------------|----------------|
Db :----------------|----------------|----------------|----------------|
Ab :3-3-3-3-3-3-3-3-|3---*-----------|----------------|----------------|
Eb :----------------|----------------|1---1---1---1---|3---3---3---3---|

Gb :----------------|----------------|----------------|----------------|
Db :----0---2-0-----|----------------|----------------|----------------|
Ab :3-----------3---|3---3---3---3---|----------------|----------------|
Eb :----------------|----------------|1---1---1---1---|3---3---3---3---|

Gb :----------------|----------------|----------------|----------------|
Db :----0---2-0-----|----------------|----------------|----------------|
Ab :3-----------3---|3---3---3---3---|----------------|----------------|
Eb :----------------|----------------|1---1---1---1---|3---3---3---3---|

Gb :----------------|----------------|----------------|----------------|
Db :----------------|----------------|----------------|----------------|
Ab :0---------------|----------------|----------------|----------------|
Eb :------0-----1---|----1---1---1---|3---3---3---3---|3---3---3---*---|

Gb :----------------|----------------|----------------|----------------|
Db :----------------|----------------|----------------|----------------|
Ab :3---------------|----------------|----------------|*---------------|
Eb :----------------|----------------|----------------|----------------|


imatreeandurnot

8. Immigration Song

Tab transcribed by Not Jason


Ozma
Immigration Song
Tabbed by Not Jason
Tuning: 1/2 step down

/ = legato slide up
\ = legato slide down
h = hammer on to the next note from the previous note
p = pull off to the next note from the previous note
~ = vibaro off the last note picked
14t12(14) = trill (rapidly hammer on and pull off between the two specified notes)
            end on the note specified in parenthesees

MAIN VERSE RIFF (play this where i specify to play the main riff)

Gb|-----------------------------|
Db|-----------------------------|
Ab|-3-----3-3---3/5---2-----2-0-|
Eb|-----------------------------|

INTRO

Gb|-------------------14/16-------------------14/16-16/19-16h17p16p14-12-11\9/11-\-|
Db|-17\16\12-17\16\12-------17\16\12-17\16\12--------------------------------------|
Ab|--------------------------------------------------------------------------------|
Eb|--------------------------------------------------------------------------------|

Gb|---------------------------------------------------------------------|
Db|-----------------------------------------------------------------7-9-|
Ab|-3-----3-3---3/5---2-----2-0-------3-----3-3---3/5---2-----2-0-------|
Eb|---------------------------------------------------------------------|

Gb|--------------------------------9-11---------------------------------|
Db|-10----10-10---12---9-12-10-9-7------10----10-10---10h12---9-----9-7-|
Ab|---------------------------------------------------------------------|
Eb|---------------------------------------------------------------------|

FIRSE VERSE

(no bass except this, which doubles the vocal melody)

Gb|-12--12--12---12--12--12--11--12/16-|
Db|------------------------------------|
Ab|------------------------------------|
Eb|------------------------------------|
    seat backs up no tray tables down--

Gb|-19--19--19-17h19-17-16---17/16---12-|
Db|-------------------------------------|
Ab|-------------------------------------|
Eb|-------------------------------------|
    no turning back- to this country town

PRE CHORUS

Gb|---------------------------------------------------------------------|
Db|---------------------------------------------------------------------|
Ab|-3-----3-3---3/5---2-----2-0-------3-----3-3---3/5---2-----2-0-------|
Eb|---------------------------------------------------------------------|

Gb|--------------------------------------------------------------------------|
Db|-10-12-14---14/17-16-14h16p14/-9-10-12-7-(7)\-----------------------------|
Ab|----------------------------------------------3-----3-3---3/5---2-----2-0-|
Eb|--------------------------------------------------------------------------|

FIRST CHORUS

Gb|----------------------------------------------------------|
Db|-5---5---5-5-5-\-2---2---2-2-2-2---5---5---5-7-9-12-12h14-|
Ab|----------------------------------------------------------|
Eb|----------------------------------------------------------|

Gb|-----------------------------------------------------------------|
Db|-5---5---5---5---2---2---2-2-2-2---5---5---5-7-9-12-12h14t12(14)-|
Ab|-----------------------------------------------------------------|
Eb|-----------------------------------------------------------------|

GUITAR SOLO

Gb|-------------------------------------------------------------------|
Db|-------------------------------------------------------------------|
Ab|-3---3---3---3/5---2-----2-0---0-3-----3-3---3/5---2-2-2-2-0-0-0-0-|
Eb|-------------------------------------------------------------------|

Gb|-----------------------------------------------|
Db|-10-10-10-10p9-10-12~-\---9---9---9-9-7-----7\-|
Ab|-----------------------------------------------|
Eb|-----------------------------------------------|

Gb|---------------------------------------|
Db|---------------------------------------|
Ab|-3-----------3/5---2-2-2-2-0-0-0-0-(3)-|
Eb|---------------------------------------|

SECOND VERSE

(listen for when main riff enters, and repeat until the variation, which is as follows)

Gb|----------------------------------9-9/12-------------------------------------|
Db|-----------------5/9---12-10-9-7---7-----10-----10-10---10/12---9---9-7---7\-|
Ab|-3-----3-3---3/5-------------------------------------------------------------|
Eb|-----------------------------------------------------------------------------|

SECOND CHORUS

Gb|-----------------------------------------------------------------|
Db|-5---5---5---5---2---2---2-2-2-2---5---5---5-7-9-12-14-14t12(14)-|
Ab|-----------------------------------------------------------------|
Eb|-----------------------------------------------------------------|

Gb|------------------------------------------------------------|
Db|-5-5-5-5-5-5-5-5-2-2-2-2-2-2-2-2-5-5-5-5-5-7-9-12-14t12(14)-|
Ab|------------------------------------------------------------|
Eb|------------------------------------------------------------|

THIRD VERSE

(main riff without variation)

BRIDGE

Gb|---------------|------19-|-----------------|---12/19-|---------------|---------19-|
Db|---------------|---17----|-----------------|---------|---------------|-17---17----|
Ab|---------------|---------|-----------------|---------|---------------|------------|
Eb|-3---3---3---3-|---------|-3---3---3-3-3-3-|---------|-3---3-----3-3-|------------|

                 
Gb|---------------|-------------------17h9-19b20r19-|
Db|---------------|-17----17----17h19---------------|
Ab|---------------|----17----17---------------------|
Eb|-3-3-3-3-3-3-3-|---------------------------------|

OUTRO

Gb|-----------------------------------------------------------------|
Db|-----------------------------------------------------------------|
Ab|-3-3-3-3-3-3-5-5-2-2-2-2-0-0-0-0-3-3-3-3-3-3-5-5-2-2-2-2-0-0-0-0-|
Eb|-----------------------------------------------------------------|

Gb|---------------------------------7h9-9-9-9h11-11-11-11-11-11-11-11/14-14/19-17-19p17-19b20-|
Db|-------------------------------------------------------------------------------------------|
Ab|-3-3-3-3-3-3-5-5-2-2-2-2-0-0-0-0-----------------------------------------------------------|
Eb|-------------------------------------------------------------------------------------------|

Gb|-----------------------------------------------------------------|
Db|-----------------------------------------------------------------|
Ab|-3-3-3-3-3-3-5-5-2-2-2-2-0-0-0-0-3-3-3-3-3-3-5-5-2-2-2-2-0-0-0-0-|
Eb|-----------------------------------------------------------------|

Gb|-----------------------------------------------------------------|
Db|-----------------------------------------------------------------|
Ab|-3-3-3-3-3-3-5-5-2-2-2-2-0-0-0-0-3-3-3-3-3-3-5-5-2-2-2-2-0-0-0-0-|
Eb|-----------------------------------------------------------------|

Gb|-----------------------------------------------------------------|---|
Db|-----------------------------------------------------------------|---|
Ab|-3-----------5---2-------0-------3-----------5---2-------0-------|-0-|
Eb|-----------------------------------------------------------------|---|



imatreeandurnot

9. Flight Of The Bootymaster

This tab is missing! Maybe you have it written down somewhere? Neato! Send it to either via email to Joe or Rieg or via Private Message to Jason or Joe or Rieg!
Ofcourse you will be credited and your tab will be posted here unedited!

imatreeandurnot

December 26, 2004, 07:54:08 am #9 Last Edit: January 18, 2005, 03:58:11 pm by imatreeandurnot
10. Continental Drift

Tab transcribed by Anthony Baumann (svczc(@)yahoo.com)


=============================================================
"Continental Drift" - by Ozma
Transcribed by Anthony Baumann (svczc@yahoo.com)
=============================================================

Notations:  / and // - slide up or down to next note
            ~~~ - sustain note
=============================================================


VERSE   (play 6 times)   [0:21]

G ---------------------------------------------------------|
D --------9-9-9-------9-9-9----------9-9-9---------9-9-9---|
A --2--//--------------------------------------------------|
E ---------------1--//-------0--//----------1--//----------|


BRIDGE NOTES [1:21]

G -----------|-----------|
D -----------|-----------|
A --0~~~~~---|--7/9~~~---|
E -----------|-----------|

G --------|--------|---------------|
D --8--6--|--6--5--|---------------|
A --------|--------|--9~~~---------|
E --------|--------|--------4~~~---|


PLAY "VERSE" 6 TIMES [1:44]


PLAY "BRIDGE NOTES" 1 TIME [2:44]


DISTORTION (Play 2 times) [3:07]


G ------------------------------------|
D ------------------------------------|
A --2-2-2-----------------------------|
E --------4-4-4-4-4-1-1-1-2-2-2-2-2---|

G -----------------------------------|
D ----------------------3-4-1-3------|
A --2-2-2-----------------------4-6--|
E --------4-4-4-4-4-2-2--------------|

G ------------------------------------|
D ------------------------------------|
A --2-2-2-----------------------------|
E --------4-4-4-4-4-4-4-4-3-3-3-3-3---|

G -----------------------------------|
D -----------------------------------|
A -----------------------------------|
E -2-2-2-2-2-2-2-2-1-1-1-1-1-1-1-1---|


SECOND DISTORTION PART [3:48]


G ------------------------|
D ------------------------|
A --2-2-------------------|
E --------4~~~--4--2~~~---|

G ------------------------------------|
D ------------------------------------|
A --4-4-4-4-4-4-4-4-------------------|
E ------------------2-2-2-2-2-2-2-2---|

G ------------------------|
D ------------------------|
A --2-2-------------------|
E --------4~~~--4--3~~~---|

G ------------------------------------|
D ------------------------------------|
A ------------------4-4-4-4-4-4-4-4---|
E --2-2-2-2-2-2-2-2-------------------|

G ------------------------------------|
D ------------------------------------|
A ------------------------------------|
E --4-4-4-4-4-4-4-4-2-2-2-2-2-2-2-2---|


GUITAR SOLO [4:14]

G ------------------------------------------|
D ------------------------------------------|
A --2~~~--------------------2-2---2-2-------|
E --------4~~~--0~~~--2~~~-------------4~~~-|

G ------------------------------------|
D ------------------------------------|
A ------------------------------------|
E --0-0-0-0-0-0-0-0-1-1-1-1-1-1-1-1---|


PLAY "VERSE" 2 TIMES [4:35]


END NOTES [5:35]

G ----------|
D ----------|
A -2/0~~~---|
E ----------|


Go Up